Oops, an error
Loading. Please wait.

Nena Tab

5 views 1 this week
no commentswrite comment
1 2 3 4 5
3 more votes to show rating
add to favorites
launch autoscroll
font size
0
reset
how to read this tab
guitar tuner
Autoscroll
slow
fast
+/-
esc
set tempo
stop
Help us to improve Ultimate-Guitar.com Take our survey!
×
Intro:     rasgueado
            rapido          
e -12-12----12-12-12-----13-13-13---12-12--------------10-10-10-
B -13-13----13-13-13-----13-13-13---13-13---12-12-12---12-12-12-
G -12-12----12-12-12-----12-12-12---12-12---12-12-12----0--0--0- 
D ------------------------0--0--0-------------------------------
A --------------------------------------------------------------
E --------------------------------------------------------------


e -12-12----12-12-12---13-13-13---12-12--------------15-15-15-
B -13-13----13-13-13---13-13-13---13-13---12-12-12---12-12-12-
G -12-12----12-12-12---12-12-12---12-12---12-12-12----0--0--0- 
D ----------------------0--0--0-------------------------------
A ------------------------------------------------------------
E ------------------------------------------------------------

e -12-12----12-12-12---13-13-13---12-12---------15-15-----
B -13-13----13-13-13---13-13-13---12-12---12-12-12-12-----
G -12-12----12-12-12---12-12-12---12-12---12-12-12-12-----
D ----------------------0--0--0---------------------------
A --------------------------------------------------------
E --------------------------------------------------------


Letra:

  Am                         C
 Nena que estas haciendo conmigo,
 
  F                       E
 estoy muriéndome de soledad.

 Am                      C
 Los días pasan tan deprisa

 F                        E        
 estoy solo en principio así tendrá que ser.
 


 F                               Am             
No mas extraños que no puedo despegar de tu vida

  F                               Am
esto es un rollo intenso y vos estas siempre ahí.


e--17---17----17-17-----15-15--16-----17--17----17-17----15-15----16--
B---------------------------------------------------------------------
G---------------------------------------------------------------------
D---------------------------------------------------------------------
A---------------------------------------------------------------------
E---------------------------------------------------------------------

Este punteo va sobre esto:

Estoy enfermo por deseo, estoy planeando alguna decisión
sueño con camas en la calle, pero ninguna es mía.


e------------------l------------------------
B----------------*-l------------------------
G----5----7----9---l----12----14------------
D--5----5----5-----l--12----14--------------
A----------------*-l------------------------
E------------------l------------------------

Sino te voy a ver puedo perder la cabeza en un dia
y ahora que empezamos es mejor seguir mi amor.


    A     G       F      E
Mejor hagamos que esto valga la pena.

e -12-12----12-12-12-----13-13-13---12-12--------------10-10-10-
B -13-13----13-13-13-----13-13-13---13-13---12-12-12---12-12-12-
G -12-12----12-12-12-----12-12-12---12-12---12-12-12----0--0--0- 
D ------------------------0--0--0-------------------------------
A --------------------------------------------------------------
E --------------------------------------------------------------


   A     G       F      E
Mejor hagamos que esto valga la pena.

e -12-12----12-12-12-----13-13-13---12-12--------------10-10-10-
B -13-13----13-13-13-----13-13-13---13-13---12-12-12---12-12-12-
G -12-12----12-12-12-----12-12-12---12-12---12-12-12----0--0--0- 
D ------------------------0--0--0-------------------------------
A --------------------------------------------------------------
E --------------------------------------------------------------


e -12-12----12-12-12---13-13-13---12-12--------------15-15-15-
B -13-13----13-13-13---13-13-13---13-13---12-12-12---12-12-12-
G -12-12----12-12-12---12-12-12---12-12---12-12-12----0--0--0- 
D ----------------------0--0--0-------------------------------
A ------------------------------------------------------------
E ------------------------------------------------------------

e -12-12----12-12-12---13-13-13---12-12---------15-15-----
B -13-13----13-13-13---13-13-13---12-12---12-12-12-12-----
G -12-12----12-12-12---12-12-12---12-12---12-12-12-12-----
D ----------------------0--0--0---------------------------
A --------------------------------------------------------
E --------------------------------------------------------


  Am                   E7
Triste y aburrido el desamparo

  Am                  E
Que dulce melodía el porvenir

  A                       Dm  F
Después recuerdo que te extraño

  Am                E
y todo vuelve a comenzar.


 Am                         C
 Nena que estas haciendo conmigo,
 
  A           G#          A  
 estoy muriéndome de soledad.


 F            Am         F                   Am           
No más extraños que no puedo despegar de tu vida

e------------------------------------------
B------------------------------------------
G----5----7----9--- ----12----14------------
D--5----5----5-------12----14--------------
A------------------------------------------
E------------------------------------------

Y ahora que empezamos es mejor seguir mi amor.


   A     G       F      E
Mejor hagamos que esto valga la pena.

e -12-12----12-12-12-----13-13-13---12-12--------------10-10-10-
B -13-13----13-13-13-----13-13-13---13-13---12-12-12---12-12-12-
G -12-12----12-12-12-----12-12-12---12-12---12-12-12----0--0--0- 
D ------------------------0--0--0-------------------------------
A --------------------------------------------------------------
E --------------------------------------------------------------


   A     G       F      E
Mejor hagamos que esto valga la pena.

e -12-12----12-12-12-----13-13-13---12-12--------------10-10-10-
B -13-13----13-13-13-----13-13-13---13-13---12-12-12---12-12-12-
G -12-12----12-12-12-----12-12-12---12-12---12-12-12----0--0--0- 
D ------------------------0--0--0-------------------------------
A --------------------------------------------------------------
E --------------------------------------------------------------

e -12-12----12-12-12---13-13-13---12-12--------------15-15-15-
B -13-13----13-13-13---13-13-13---13-13---12-12-12---12-12-12-
G -12-12----12-12-12---12-12-12---12-12---12-12-12----0--0--0- 
D ----------------------0--0--0-------------------------------
A ------------------------------------------------------------
E ------------------------------------------------------------

e -12-12----12-12-12---13-13-13---12-12---------15-15-----
B -13-13----13-13-13---13-13-13---12-12---12-12-12-12-----
G -12-12----12-12-12---12-12-12---12-12---12-12-12-12-----
D ----------------------0--0--0---------------------------
A --------------------------------------------------------
E --------------------------------------------------------

Valga la pena ...... (repetido varias veces con el riff del intro)
Suggest correction
Give kudos to tab author, rate the tab!
1 2 3 4 5
comments
print report bad tab
guest
You may want to rate the tab now too:
select rating
Wanna post a correction for this tab? Suggest correction