Oops, an error
Loading. Please wait.

Polillas Tab

5 views 1 this week
no commentswrite comment
1 2 3 4 5
3 more votes to show rating
add to favorites
×
Save as Personal and add changes to this tab that will be seen only by you. Learn more ›
×
You can save this tab as Personal to edit and correct it or add notes. All changes will be seen only by you. Learn more »
save as personal
new!
launch autoscroll
font size
0
reset
how to read this tab
guitar tuner
Autoscroll
slow
fast
+/-
esc
set tempo
stop
Antes que nada, este tema se lo dedico a Ivana
(la hermana de mi amigo Ulises)que me re gusta.
Avisame cuando dejes a tu novio...
Mi primera tab. Espero que esté bien porque me rompí
 el alma para  cosa pregunten, feliciten,
sugieran, agradezcan,hagan criticas destructivas, puteen, etc. a
GollumLP@

Intro
   1° viola
e|(11h12p11)--|-(11p10h)x4-|-(10p9h)x4-|-5-3-10-12-|
b|--------^---|------------|-----------|-5-3-10-12-|
g|--------|---|------------|-----------|-----------|
d|muchas veces|------------|-----------|-----------|
a|------------|------------|-----------|-----------|
E|------------|------------|-----------|-----------|
 |            |            |           |           |
 |2° viola    |            |           |           |
e|------------|------------|-----------|-----------|
b|------------|------------|-----------|-----------|
g|------------|------------|-----------|-----------|
d|-----------7|----------7-|---------7-|-----------|
a|-----------7|----------7-|---------7-|-----------|
E|-----------5|----------5-|---------5-|-----------|


Am                               F#m    E
  Un valle de lana doblado tiernamente
Am                            F#m     Riff 1 (aparece en el solo)
  y Un sobretodo sobre todo sabroso
Dm                      E7/#9
  Hoy la princesa tiene de comer
(riff2)Am          G         F
 un banquete un festín un manjar
Dm                      E7/#9 E7/#9 E7/#9
  Después de todo mi alimento no usarán

     Am                                  F#m      E
Esta vez una flaca bufanda cuelga de una percha
Am                                  F#m Riff 1
  Que medio borracha sensual me viborea
Dm                  E7/#9
  Un ballet de bordados pañuelos
(riff2)Am          G         F
      agitan su cuadrado cuerpo
Dm                      E7/#9 E7/#9 E7/#9
  Después de todo mi alimento no usarán

ESTRIBILLO
     A5                G5 G5     D5                   C5 C5
Esta vez ya (ya no no) no quiero más polillas (ya ya) no quiero
A5                     G5 G5    D5              C5    C5
que me coman (man) mas cortinas pero ellas(ñaca ñaca) vuelven
 A5       G5 G5   D5                          C5     C5
(puse) naftalinas en el comedor, en el ropero y en toda la casa
A5                G5    G5     D5                    C5   C5
ya no no ya no no ya no quiero más ya no quiero más alimentarlas.

SOLO
  Guitarra 1 (solo)
e|--------|--------|--------|--------|--------|--------|--------|---------|
b|8~~~~~~~|~~~~~~~~|--------|--------|--------|--------|--------|---------|
g|--------|--------|7b9~~~~~|~~----5~|~~~~~~--|--------|--------|---------|
d|--------|--------|--------|--5h7---|--------|------1~|~~~~~~~~|---------|
a|--------|--------|--------|--------|--------|--------|--------|---------|
e|--------|--------|--------|--------|--------|--------|--------|---------|
 |Guitarra|(acomp.)|        |        |        |        |        |         |
 |Am      |Am      |F#m     |F#m     |Am      |Am      |F#m     |F#m      |
 |        |        | riff en estrofas|        |        |        |         |
e|--------|--------|--------|--------|--------|--------|--------|---------|
b|-----8-7|-----8-7|-----5-4|-----5-4|-----8-7|-----8-7|-----5-4|------5-4|
g|--5-----|--5-----|--2-----|--2-----|--5-----|--5-----|--2-----|--2------|
d|7---7---|7---7---|4---4---|4---4---|7---7---|7---7---|4---4---|4---4----|
a|--------|--------|--------|--------|--------|--------|--------|---------|
e|--------|--------|--------|--------|--------|--------|--------|---------|

  Guitarra 2
 |Dm         | E7/#9              |Am [riff2]  G       | F            |
 |Guitarra 1 |                    |                    |              |
e|-----------|--------------------|----5---------5-----|--------------|
b|6-6-6p5----|-------8-----8------|--------------------|------------5-|
g|--------7-5|b9r7b9---7b9---9r7-5|-7b9--7b9--7b9--7b9-|-7-5-7-5-7--5-|
d|-----------|--------------------|--------------------|--------------|
a|-----------|--------------------|--------------------|--------------|
e|-----------|--------------------|--------------------|--------------|


 |Dm                     | E7/#9 E7/#9 E7/#9
e|------------8p5--5-----|------------------||
b|8b10~~~r8p5-----8--8p5-|-8b10~~~~---------||
g|-----------------------|------------------||
d|-----------------------|------------------||
a|-----------------------|------------------||
e|-----------------------|------------------||

Repite estribillo. Hacia el final
("ya no quiero más, alimentarlas"), hace esto:

e|11h12p11-10h11p10-9h10p9-8h9p8-7h8p7-6h7p6---||
b|---------------------------------------------||
g|---------------------------------------------||
d|-------------------------------------------7-||
a|-------------------------------------------7-||
e|-------------------------------------------5-||

Estos son los Acordes que se usan:
 |Am |F#m| E |Dm |E7/#9| G | F |A5 |G5 |D5 |C5 |
e|-5-|-2-|-0-|-5-|-----|-3-|-1-|---|---|---|---|
b|-5-|-2-|-0-|-6-|--9--|-3-|-1-|---|---|---|---|
g|-5-|-2-|-1-|-7-|--7--|-4-|-2-|---|---|-7-|-5-|
d|-7-|-4-|-2-|-7-|--6--|-5-|-3-|-7-|-5-|-7-|-5-|
a|-7-|-4-|-2-|-5-|--7--|-5-|-3-|-7-|-5-|-5-|-3-|
e|-5-|-2-|-0-|---|-----|-3-|-1-|-5-|-3-|---|---|

Y casi me olvido de escribir el Riff 2:
 |Am     G     | F  ||
e|-8-7-5-7-5-3-|-1--||
b|-------------|----||
g|-9-7-5-7-5-4-|-3--||
d|-------------|----||
a|-------------|----||
e|-------------|----||

Bueno, señores, eso es todo. Si hay alguna piifeada, por más
chica que sea, avísenme al mail. Ahora que terminé esta, voy a
 ver si escribo Rap o El Sueño de la Mujer.
Avísenme si les gusto también.

                             José Luis de Berazategui.
Suggest correction
Give kudos to tab author, rate the tab!
1 2 3 4 5
comments
print report bad tab
guest
Wanna post a correction for this tab? Suggest correction