Oops, an error
Loading. Please wait.

Purgatorio Tab

14 views 1 this week
no commentswrite comment
1 2 3 4 5
3 more votes to show rating
add to favorites
launch autoscroll
font size
0
reset
how to read this tab
guitar tuner
Autoscroll
slow
fast
+/-
esc
set tempo
stop
 INTRO


E---------------2------------9----------------------------------------------
B--------1h2----2-6-2--------9----------------------------5-----------------
G--4--2------4--------4-2h1-------4-3---------------------7-----------------
D--4--2-------------------------6---4---------4-6h4----7--7-----7-7-5-2-----
A--2--0----------------------------------4-7---------7-5--5-----7-7-5-2-----
E---------------------------------------------------------------5-5-3-0-----


 E                       Bsus4        A9/F#            C#m
 Antes cuando estaba tranquilo necesitaba un poco de acción

   E                   Bsus4           A9/F#         C#m
 Ahora que no tengo respiro no puedo hacer ni una canción

 A                                                     E                  G#m7/5aum
 Dicen que la tristeza es como una lluvia que riega el alma pasando en la tierra

   F#           A        E  Esus4  E
 Lavando todas sus miserias

  A                                               E                G#m7/5aum
 Purgarme con un manto de gras y luna, dejar que rompa sobre mí la ola

    F#                 A           E
 Dejar que el túnel me atraviese a mí.


 PUENTE


   B        A               C#m    F#   D

E------------------------------4------------------------
B----4-5-7----7-5---7-5---5-4----5-7---5h7--------------
G--4--------6-----------6-------------------------------
D---------------------------------------------7-7-5-2---
A---------------------------------------------7-7-5-2---
E---------------------------------------------5-5-3-0---


  E                      Bsus4              A9/F#         C#m
 Que bueno sentir en las manos que has trabajado algo por vos

  E                      Bsus4            A9/F#         C#m
 Nada se compara a la entrega, más cuando llega del corazón

 A                                          E                     G#m7/5aum
 Una de todas las luces en el cielo era la mía y por Dios no la encuentro

    F#          A           E
 Esta noche voy a buscar mejor.


 INTER (VIOLÍN)


   G              D           Am                       Em

E--7-7-7-7-7-8-10-10---10-8-7------------7-----------7----------7-------------------------
B-----------------------------10--8-10-----10-8--------10-8-------10-8--------------------
G-----------------------------------------------9-----------9----------9------------------
D-----------------------------------------------------------------------------------------
A-----------------------------------------------------------------------------------------
E-----------------------------------------------------------------------------------------


   G                    D                   Am            Em

E--10-10-10-10-10-12-14-----10----------------------------------------17-19-20--22-19-19--
B-----------------------12-----13-12-13----------------------17-19-20---------------------
G-----------------------------------------9-11-12---16-17-19------------------------------
D-----------------------------------------------------------------------------------------
A-----------------------------------------------------------------------------------------
E-----------------------------------------------------------------------------------------


  A                                                    E                  G#m7/5aum
 Dicen que la tristeza es como una lluvia que riega el alma pasando en la tierra

   F#           A        E  Esus4  E
 Lavando todas sus miserias

  A                                               E                G#m7/5aum
 Purgarme con un manto de gras y luna, dejar que rompa sobre mí la ola

    F#              A              E
 Dejar que el túnel me atraviese a mí.


 PUENTE


E-------------------------------4--------------------
B----4-5-7----7-5---7-5---5-4-----5-7--5h7-----------
G--4--------6-----------6----------------------------
D--------------------------------------------7-7-----
A--------------------------------------------7-7-2---
E--------------------------------------------5-5-0---


 CORO: G  D  Am  Em


  E          O22100              Esus4  022200
  Bsus4      X24400              B      X24442
  A9/F#      2X2200              D      XXO232
  C#m        X46654              G      320003
  A          XO222O              Am     X02210
  G#m7/5aum  424400              Em     022000
  F#         244322


  Éste es el mejor tema del mundo. Ojalá que lo disfruten.
  Ya que estoy, convoco a primeros o primeras guitarristas
  que quieran formar parte de mi banda (hacemos temas
  nuestros y cóvers, por ejemplo de León, Fito y ya saben
  quiénes) a escribir a estadocalamar@ ya que
  andamos en busca de uno/a. Ensayamos en Ezpeleta.


  Ojalá algún día el mundo sepa lo que le debe a los mayores
  genios del arte por esta obra maestra.
Suggest correction
Give kudos to tab author, rate the tab!
1 2 3 4 5
comments
print report bad tab
guest
Wanna post a correction for this tab? Suggest correction