Oops, an error
Loading. Please wait.

Se Te Nota Bass

version 2
version 2

Whole song

101 views 1 this week
no commentswrite comment
1 2 3 4 5
3 more votes to show rating
add to favorites
launch autoscroll
font size
0
reset
guitar tuner
×
Best way to learn
"Se Te Nota"
Autoscroll
slow
fast
+/-
esc
set tempo
stop
BAJO
INTRO-ESTROFA

G----------------------------------------------------
D-77-5--77-5--55----55-------------------55---55-----  (X 4)
A-----7-----7---7-5---7-5--55-3-0-55-3-0---7-5--7-5--
E----------------------------------------------------

...y los demas están hablando de tus gestos...

G-----------------------------------
D------------------55-777777-555555-
A-3-33-55-77-888888-----------------
E-----------------------------------

...es que no te das cuenta y quiero saberlo...

G---------------------------
D-222222-333333-------------
A--------------333333-------
E--------------------333333-

...se como pasas el tiempo...

G----------------------------------------------------
D-77-5--77-5--55----55-------------------55---55-----  (X 2)
A-----7-----7---7-5---7-5--55-3-0-55-3-0---7-5--7-5--
E----------------------------------------------------

...y de verdad que no sabes...

G-----------------------------------
D------------------55-777777-555555-
A-3-33-55-77-888888-----------------
E-----------------------------------

...pareces un fantasma...

G---------------------------
D-222222-333333-------------
A--------------333333-------
E--------------------333333-

ESTRIBILLO

...será que se te nota nena...

G---------------------------
D-555555-333333-------------  (X 4)
A--------------333333-------
E--------------------333333-

...es que no te das cuenta y quiero saberlo...

G---------------------------
D-222222-333333-------------
A--------------333333-------
E--------------------333333-

(hay un pequeño solo de guitarra que va acompañado asi)

G---------------------------
D-222222-333333-------------
A--------------333333-------
E--------------------333333-

G---------------------------------
D-222222-333333-------------------
A--------------333333-------2-3-5-
E--------------------333333-------

(BREAK) ...sera que se te nota nena...

...y te corres de la luz... (hace una pequeña escala)

G-3--------------
D--2-3-5---------
A--------2-3-4-5-
E----------------

...es que no te das cuenta...

G----------------------
D----------------------
A---------333333-------
E-0---1---------333333-

G---------------------------
D-555555-333333-------------  (X 2)
A--------------333333-------
E--------------------333333-

FINAL

G------------------------------------------------------
D------------------------------------22-22-33-33-3-3---
A----------------------------------------------------3-
E-00-00-11-11-111--00-00-11-11-111---------------------


PARA MI ESTÁ PERFECTA, CUALQUIER COSA VERIFIQUENLA... SALUDOS...
Suggest correction
Give kudos to tab author, rate the tab!
1 2 3 4 5
comments
print report bad tab
guest
You may want to rate the tab now too:
select rating
Wanna post a correction for this tab? Suggest correction