Oops, an error
Loading. Please wait.

Quiero Amar Tab

18 views 1 this week
no commentswrite comment
1 2 3 4 5
3 more votes to show rating
add to favorites
launch autoscroll
font size
0
reset
how to read this tab
guitar tuner
Autoscroll
slow
fast
+/-
esc
set tempo
stop
Help us to improve Ultimate-Guitar.com Take our survey!
×
Esta canción se llama Quiero Amar de un grupo salido de ?LA NUEVA ACADEMIA?
Los tobys... es una cancion muy padre espero les agrade mi desciframiento.
Si quieren sugerirme mas canciones para sacar solo escribanme?


   A#add9

   E--8-|
   B--6-|
   G--7-|
   D--8-|
   A--x-|
   E--x-|


::QUIERO AMAR::LOS TOBYS::

Intro acordes: C  G  F  Am  G  F

Intro:
e|------0--------------------------------|
B|----3---1-------3-0--1--1-0-1-0--------|
G|--0-------0---0------2----------0----2-|
D|----------------------------------2--3-|
A|--3------------------0--0--------------|
E|--------------3---4-----------3------1-|

Verso 1:
C
Aquí a tu lado
G            F
En la obscuridad
Am        G       F
Siento tu alma vibrar

Verso 2:
C
Lento suspiras
G       F
Sinceridad
Am       G         F
Esto es amor de verdad

Pre-Coro:
    Dm
Las alas abrimos
   Am
Soñamos volar
   C     G              F      G
Y juntos por siempre estar

Coro:
            C
Y hoy me entrego a ti
G              F
Quiero amar, debes creer
        A#add9
Nada hay que esconder

  C
Aquí estaré
  G           F
Para volar, vengo a decir
     A#add9
Te deseo a morir, Quiero amar


Intro:
e|------0--------------------------------|
B|----3---1-------3-0--1--1-0-1-0--------|
G|--0-------0---0------2----------0----2-|
D|----------------------------------2--3-|
A|--3------------------0--0--------------|
E|--------------3---4-----------3------1-|

Verso 3:
C
Sin ti mi cuento
G          F
No tiene final
   Am          G            F
Es frío el invierno si no estas

Verso 4:
C
Toma mis manos
G         F
Quiéreme así
Am      G         F
Como te amo yo a ti

Pre-Coro:
    Dm
Y hoy que regresas
   Am
Revive mi piel
     C        G         F         G
No sueltes mi mano otravez

Coro:
            C
Y hoy me entrego a ti
   G         F
Quiero amar, debes creer
     A#add9
Nada hay que esconder

  C
Aquí estaré
  G           F
Para volar, vengo a decir
      A#add9
Te deseo a morir,
     F                Am          F
Quiero amar (yo te quiero amar, y yo te quiero amar)
  Am               F
Y yo te quiero amar


Todo te entrego a ti
   G         F
Quiero amar, debes creer
        A#add9
Nada hay que esconder

  C
Aquí estaré
  G           F
Para volar, mírame bien
        A#add9
Siempre te cuidare, Quiero amar

Intro:
e|------0-----|  |------0--------------0-|
B|----3---1---|  |----3---1-----------1--|
G|--0-------0-|  |--0-------0--------0---|
D|------------|x2|-------------2----2----|
A|--3---------|  |--3--------------3-----|
E|------------|  |-------------1--3------|


Fin

PROXIMAMENTE TABLATURA DE BASS

SUGERENCIAS "aleex-lr@
Suggest correction
Give kudos to tab author, rate the tab!
1 2 3 4 5
comments
print report bad tab
guest
You may want to rate the tab now too:
select rating
Wanna post a correction for this tab? Suggest correction