Oops, an error
Loading. Please wait.

Llena De Maldad Bass Tab

7 views 3 this week
no commentswrite comment
1 2 3 4 5
3 more votes to show rating
add to favorites
launch autoscroll
font size
0
reset
guitar tuner
Autoscroll
slow
fast
+/-
esc
set tempo
stop
Help us to improve Ultimate-Guitar.com Take our survey!
×
Llena de maldad ? Los Tocayos

Estribillo
G|------------------------------------------------|
D|----------------------------10---------10-------|
A|------------10-13-10-12-13------12-13------12---|
E|-10-12-13---------------------------------------|

G|------------------------------------------------|
D|----------------------------10------------------|
A|------------10-13-10-12-13------12-10-9---------|
E|-10-12-13---------------------------------------|

G|------------------------------------------------|
D|----------------------------10---------10-------|
A|------------10-13-10-12-13------12-13------12---|
E|-10-12-13---------------------------------------|

G|------------------------------------------------|
D|------------------------------------------------|
A|------------10-10-10-13-12-10-9-^^^-------------|
E|-10-12-13---------------------------------------|

no creo en ti..
SOL+DO
G|--------------------------|
D|--------------------------|
A|----------?-?-3h5-5-5-5-5-|
E|-3-5?-3-3-5-3-------------|

SOL+RE
G|--------------------------|
D|--------------------------|
A|--------------3/8-8-8-8---|
E|-3-5?-3-3-5-3-------------|

escuchen la cancion para tocarla mejor,
dudas quejas mauri_123_m@

aguante los tocayos...
Suggest correction
Give kudos to tab author, rate the tab!
1 2 3 4 5
comments
print report bad tab
guest
You may want to rate the tab now too:
select rating
Wanna post a correction for this tab? Suggest correction