Oops, an error
Loading. Please wait.

No Puedo Quitarme Las Espinas Tab

80 views 1 this week
no commentswrite comment
1 2 3 4 5
3 more votes to show rating
add to favorites
launch autoscroll
font size
0
reset
how to read this tab
guitar tuner
×
Best way to learn
"No Puedo Quitarme Las Espinas"
Autoscroll
slow
fast
+/-
esc
set tempo
stop
Intro
D-G-A-D-G-A

e|-910-910910-12---9999-10---777-555---|
b|-------------------------------------|
g|-------------------------------------|

e|7-910910910-12---7-99-109109---10910910-12-109--|
b|------------------------------------------------|
g|------------------------------------------------|

e|-10910795--|
b|-----------|
g|-----------|

D                  G
Se me ha muerto el corazón en esta vez
A                             D
Sabía que me mataría esta ilusión
Bm                    A
Por querer volverte buena
                      G
Y ser dueño de mil penas
               D
Me enamore y fue mi error
Bm                  A
Ahora pago por amarte
                    G
Y el pecado de adorarte
                    A
Y me dejas, que dolor

     D                   G                   D
Y en el viento me dejas un suspiro en silencio
G                        D
Me grita que estoy muriendo por dentro
G                        A
Confiesa que eres tú mi gran amor
                         D
Mi gran amor que tristeza
G                             D
No, no pude quitarte las espinas
G                             D
Yo mismo he cultivado mis heridas
G                        A
Yo mismo me declaro perdedor
                         G                  D
Al quererte cambiar pero tu solo juegas con el amor

Bm
Cuando no debí de entregarme me entregue sin condición
G
Fui tan solo un pobre iluso que a tu vida se entrego
A
Corazón PA que me diste sentimientos
G                   D
Si eso no fuera morir
Bm
En todos los rincones
                        G
De mi alma esta guardada
                         A
Como olvidarme de que hiciste tú
                         G
Te aburriste de quererme
                         A
Ya me fastidie de adorarte
               G                   D
Y ahora me entregas preso en el amor


     D                   G                   D
Y en el viento me dejas un suspiro en silencio
G                        D
Me grita que estoy muriendo por dentro
G                        A
Confiesa que eres tú mi gran amor
                         D
Mi gran amor que tristeza
G                             D
No, no pude quitarte las espinas
G                             D
Yo mismo he cultivado mis heridas
G                        A
Yo mismo me declaro perdedor
                         G                  D
Al quererte cambiar pero tu solo juegas con el amor

A-G-D-A-G-D-A-D-A-D-A-D


e|-9999-1212---9999-12-9-10----1010-1212-7-5~----10--|
b|--------------------------------------------77-----|
g|---------------------------------------------------|

e|-9999-1212---9999-12-9-10----1010-1212-7-5~----10--|
b|--------------------------------------------77-----|
g|---------------------------------------------------|

e|-----57575759------575757510-----57575759-|
b|---7-------------7-------------7----------|
g|-7-------------7-------------7------------|

e|-75759--757510-|
b|---------------|
g|---------------|

e|-----57575759------575757510-----575757599997777555533332-|
b|---7-------------7-------------7--------------------------|
g|-7-------------7-------------7----------------------------|

Bm                            G
Y habías querido a un más corazón
A                             D
Pero hacer que me amaras me arriesgue
Bm                      A
Me engañaste con el viento
G
Y al final dije te quiero
D
Porque te sentí querer
Bm
Ahora sufro mi condena
A                        G
Ya sabía que no eras buena
A
Dios porque me enamore

      D                  G                   D
Sentimientos porque cayeron llevando mi sonrisa
G                        D
Si tu eras tan fugas como la brisa
G                        A
No se porque en verdad me enamore
                         D
Yo no lo se
G                             D
Me arrepiento de estar queriéndote como te quiero
G                             D
Ese será siempre mi sufrimiento
G                        A
El jugar sabiendo que iba a perder
                         G                  D
Pero quise intentar y el día menos pensado me entregue

e|-9999-1212---9999-12-9-10----1010-1212-7-5~----10--|
b|--------------------------------------------77-----|
g|---------------------------------------------------|

e|-9999-1212---9999-12-9-10----1010-1212-7-5~----10--|
b|--------------------------------------------77-----|
g|---------------------------------------------------|

e|-----57575759------575757510-----57575759-|
b|---7-------------7-------------7----------|
g|-7-------------7-------------7------------|

e|-75759--757510-|
b|---------------|
g|---------------|

e|-----57575759------575757510-----575757599997777555533332-|
b|---7-------------7-------------7--------------------------|
g|-7-------------7-------------7----------------------------|
Suggest correction
Give kudos to tab author, rate the tab!
1 2 3 4 5
comments
print report bad tab
guest
You may want to rate the tab now too:
select rating
Wanna post a correction for this tab? Suggest correction