Oops, an error
Loading. Please wait.

Te Lo Pido De Rodillas Tab

18 views 1 this week
no commentswrite comment
1 2 3 4 5
3 more votes to show rating
add to favorites
launch autoscroll
font size
0
reset
how to read this tab
guitar tuner
Autoscroll
slow
fast
+/-
esc
set tempo
stop
Help us to improve Ultimate-Guitar.com Take our survey!
×
INTRO:

   A7                 A7
E|---------0---------0-
B|-------2---2-------2-
G|-----0-------0-----0-
D|---2---------------2-
A|-0-----------------0-
E|-------------------0-


ESTROFA 1:

       D                        F#
E|---------------1----------------------------2-------
B|-----------3-----3---3------------------2-----2---2-
G|---------2---2-----2------------------3---3-----3---
D|-------0----------------------------4---------------
A|----------------------------------------------------
E|----------------------------------------------------
  TE LLAMÉ,           PORQUE HACE UN AÑO

           Bm                   B7
E|--------------------2----------------2-------
B|----------------3-----3---3------0-----0---0-
G|--------------4---4-----4------2---2-----2---
D|------------4----------------1---------------
A|---------------------------------------------
E|---------------------------------------------
   QUE NO HABLAMOS

         G                  F#
E|-----------------3--------------------2-------
B|-------------3-----3---3----------2-----2---2-
G|-----------4---4-----4----------3---3-----3---
D|---------5--------------------4---------------
A|----------------------------------------------
E|----------------------------------------------
  PARA ROMPER            AQUEL ADIÓS

          Bm            F#5-G5-G#5-A5
E|-------------------
B|---------------3---
G|-------------4---4-
D|-----------4-------
A|-------------------
E|-------------------
  QUE NOS JURAMOS


CORO:(Comienza rasgeo)

       D          F#
VOY A PEDIRTE DE RODILLAS
      Bm            B7
QUE REGRESES JUNTO A MI
G      F#    Bm
PORQUE SOY DE TI
      G        A
Y TE QUIERO COMO ANTES
       D
MUCHO MAS


PUNTEO:
E|--------------------------------------
B|-3--2-3-5-3-2-3--2-3-5-3-2-3--3-0-----
G|----------------------------------0-2-
D|--------------------------------------
A|--------------------------------------
E|--------------------------------------


ESTROFA 2:

       D                       F#
E|---------------1----------------------------2-------
B|-----------3-----3---3------------------2-----2---2-
G|---------2---2-----2------------------3---3-----3---
D|-------0----------------------------4---------------
A|----------------------------------------------------
E|----------------------------------------------------
  TE LLAME             PORQUE TE QUIERO

       Bm            B7
E|--------------2----------------2-------
B|----------3-----3---3------0-----0---0-
G|--------4---4-----4------2---2-----2---
D|------4----------------1---------------
A|---------------------------------------
E|---------------------------------------
   TODAVÍA

            G                  F#
E|----------------------3-----------------------2-------
B|------------------3-----3---3-------------2-----2---2-
G|----------------4---4-----4-------------3---3-----3---
D|--------------5-----------------------4---------------
A|------------------------------------------------------
E|------------------------------------------------------
  PORQUE ESTE AMOR            ME ATORMENTA

          Bm            F#5-G5-G#5-A5
E|-------------------
B|---------------3---
G|-------------4---4-
D|-----------4-------
A|-------------------
E|-------------------
  NOCHE Y DÍA


CORO:(Comienza rasgeo)

       D          F#
VOY A PEDIRTE DE RODILLAS
      Bm            B7
QUE REGRESES JUNTO A MI
G      F#    Bm
PORQUE SOY DE TI
      G        A
Y TE QUIERO COMO ANTES
       D          F#
VOY A PEDIRTE DE RODILLAS
      Bm            B7
QUE REGRESES JUNTO A MI
G      F#    Bm
PORQUE SOY DE TI
      G        A
Y TE QUIERO COMO ANTES
       D
MUCHO MAS


PUNTEO:
E|--------------------------------------
B|-3--2-3-5-3-2-3--2-3-5-3-2-3--3-0-----
G|----------------------------------0-2-
D|--------------------------------------
A|--------------------------------------
E|--------------------------------------

E|--------------------------------------
B|-3--2-3-5-3-2-3--2-3-5-3-2-3--3-0-----
G|----------------------------------0---
D|------------------------------------2-
A|--------------------------------------
E|--------------------------------------


FINAL:
        D
E|------2-
B|------3-
G|-0-2--2-
D|------0-
A|------0-
E|------0-
Suggest correction
Give kudos to tab author, rate the tab!
1 2 3 4 5
comments
print report bad tab
guest
You may want to rate the tab now too:
select rating
Wanna post a correction for this tab? Suggest correction