Oops, an error
Loading. Please wait.

Claridad Chords

version 2
version 2

Whole song

4 views 1 this week
no commentswrite comment
1 2 3 4 5
3 more votes to show rating
add to favorites
launch autoscroll
font size
0
reset
transpose
0
reset
display chords
guitar tuner
Autoscroll
slow
fast
+/-
esc
set tempo
stop
Help us to improve Ultimate-Guitar.com Take our survey!
×
No me gusta meter mucho floro asi que ahi estan
los punteos de la cancion, es bien sencillo.

Intro:

E------------------------------------|
B------------------------------------|
G-----4-----4----5-5-5-4-------------|
D-5-5---5-7----5---------5-7---------|
A------------------------------------|
E------------------------------------|

E------------------------------------|
B------------------------------------|
G-----4-----4----5-5-5-4-------------|
D-5-5---5-7----5---------5-7---------|
A------------------------------------|
E------------------------------------|

E------------------------------------|
B------------------------------------|
G-----4-----4----5-5-5-4-------------|
D-5-5---5-7----5---------5-7---------|
A------------------------------------|
E------------------------------------|

E------------------------------------|
B------------------------------------|
G-----4-----4----5-5-5-4-------------|
D-5-5---5-7----5---------5-7---------|
A------------------------------------|
E------------------------------------|

E------------------------------------|
B------------------------------------|
G------------------------------------|
D-5^-5^-5^- varias veces-------------|
A------------------------------------|
E------------------------------------|

Intermedio y Outro:

E-------------------------------
B-8-7-5-3-1-0------/8-7-5-3-1---
G-------------2-0-------------2-
D-------------------------------
A-------------------------------
E-------------------------------

E-------------------------------12---|
B----------------------12-13-15------|
G-0-2-4-5-7-9-11-12-14---------------|
D------------------------------------|
A------------------------------------|
E------------------------------------|

para el intermedio:
E------------------------------------|
B------------------------------------|
G------------------------------------|
D-5^-5^-5^- varias veces (para el intermedio)
A------------------------------------|
E------------------------------------|

para el final: Sol

Pa la gemelita.
Suggest correction
Give kudos to tab author, rate the tab!
1 2 3 4 5
comments
print report bad tab
guest
You may want to rate the tab now too:
select rating
Wanna post a correction for this tab? Suggest correction