Oops, an error
Loading. Please wait.

El Gran Chaparral Tab

16 views 1 this week
no commentswrite comment
1 2 3 4 5
3 more votes to show rating
add to favorites
launch autoscroll
font size
0
reset
how to read this tab
guitar tuner
Autoscroll
slow
fast
+/-
esc
set tempo
stop
Help us to improve Ultimate-Guitar.com Take our survey!
×
Este es el instrumental de los 13 baladas
es bien chevere, toquenlo, esta 100% correcto

Intro: A5 A5 G5 A5 A5 G5....asi comienza


E----------------------------------------------------------------------------|
B----------------------------------------------------------------------------|
G----------------------------------------------------------------------------|
D-----------------3-3-3-2---0-0---3-3-3-2---0-0--0---------------------------|
A-3-3-3-2---0-0-3---------3-----3---------3--------3-2-3-3-3-2-0-2-2h3-2-0---|
E---------3----------------------------------------------------------------3-|

E--------------------------------------------------------------------------------------|
B--------------------------------------------------------------------------------------|
G--------------------------------------------------------------------------------------|
D---------------------------3-3-3-2---0-0---3-3-3-2---0-0--0---------------------------|
A--0-0--0-0-3-3-3-2---0-0-3---------3-----3---------3--------3-2-3-3-3-2-0-2-2h3-2-0---|
E-3----3------------3----------------------------------------------------------------3-|

E-------|
B-------|
G-------| ====> acaba y sube de tono, ahora es F#5 F#5 E5
D-------|
A--0-0--|
E-3----3|

E-------------------------------------------------------------------------------|
B-------------------------------------------------------------------------------|
G-------------------------------------------------------------------------------|
D-------------------------------------------------------------------------------|
A----------5-5-5-4---------5-5-5-4----------------------------------------------|
E-0-2-2--5---------5-7-7-5--------5-7-7-7-5-4-5-5-5-4-2-4-4h5-4-2-0-2-2-0-2-2-0-|

E------------------------------------------------------------------------|
B-----------------3-3-2---------3-3-2------------------------------------|
G-2-2-2-1-------2-------2-4-4-2-------2-4-4-4-2-1-2-2-2-1---1-1h2-1------|
D---------2-4-4-------------------------------------------4---------4-2--|
A------------------------------------------------------------------------|
E------------------------------------------------------------------------|

termina: F#5 F#5 E5    F#5 F#5 E5    F#5 F#5 E5    F#5

Dedicada a la gente q sabe q toco. ja

Cualquier comentario, reclamo, queja o plata a:
slashperu@
Suggest correction
Give kudos to tab author, rate the tab!
1 2 3 4 5
comments
print report bad tab
guest
You may want to rate the tab now too:
select rating
Wanna post a correction for this tab? Suggest correction