Oops, an error
Loading. Please wait.

Hipocresia Tab

73 views 1 this week
no commentswrite comment
1 2 3 4 5
3 more votes to show rating
add to favorites
launch autoscroll
font size
0
reset
how to read this tab
guitar tuner
×
Best way to learn
"Hipocresia"
Autoscroll
slow
fast
+/-
esc
set tempo
stop
weno...esta es la primera colaboracion q hago xD...si esta mal
q mas da...esta basada en la anterior,
basicamente lo mismo pero con ^^intro^^

ACORDES:

Gm: 3   Cm 3   F 1    A# 1    D 2   D# 3
    5      3     3       1      5      6
    5      5     3       3      4      5
    3      5     2       3      2      3
    3      4     1       3      3      4
    3      3     1       1      2      3


              Gm                                Cm
E|-------------------------------------------------
B|--------------------------------------------------
G|----------------------------------------------7^--
D|--0--5--7--8--7--5--7--5-----8--7--5--7--5--------
A|--------------------------------------------------
E|--------------------------------------------------

             D                                   Gm      F--> caidas
E|-----------------------------------------------
B|-----------------------------------------------
G|-------------------------------------------6^---
D|--0--4--5--7--5--4--5--4--7--5--4--5--4--------
A|-----------------------------------------------
E|-----------------------------------------------

              Gm                                Cm
E|-------------------------------------------------
B|--------------------------------------------------
G|----------------------------------------------7^--
D|--0--5--7--8--7--5--7--5-----8--7--5--7--5--------
A|--------------------------------------------------
E|--------------------------------------------------

             D                                   Gm      F--> caidas
E|-----------------------------------------------
B|-----------------------------------------------
G|-------------------------------------------6^---
D|--0--4--5--7--5--4--5--4--7--5--4--5--4--------
A|-----------------------------------------------
E|-----------------------------------------------


       Gm                                Cm                  F
Hoy al verte con otro amor asi sonriendo tanto ,me que de indiferente,
                                      A#
lo que hubo entre los dos murio para siempre
D                    Gm      F  D#
Tuve que sufrir para olvidar
                       D    D# D
todos esos falsos juramentos


       Gm                         Cm
Hipocresia, morir de sed teniendo tanta agua
D                         Gm         F  D#
morir de amor fingiendo estar alegre
                          D         D#    D
queriendo amar y estar indiferente indiferente
       Gm                         Cm
hipocresia, es tu sonrisa donde escondo el llanto
D                        Gm         F  D#
mi cuerpo tiene aquel perfume tuyo
                        D           D#    D
que me recuerda como estoy sufriendo
                       Gm
y que de celos yo me estoy muriendo


SE REPITE INTRO^^....(da pereza copiar xD)

       Gm                                      Cm                F
Hoy al verte comprendi que solo a ti te quiero tanto me quede indiferente
                                 A#
si al lado de el ya vives tan contenta
D                      Gm           F  D#
no hago falta mas , luchar para que
                    D    D# D
te amo mas que a mi vida

       Gm                         Cm
Hipocresia, morir de sed teniendo tanta agua
D                         Gm         F  D#
morir de amor fingiendo estar alegre
                          D         D#    D
queriendo amar y estar indiferente indiferente
       Gm                         Cm
hipocresia, es tu sonrisa donde escondo el llanto
D                        Gm         F  D#
mi cuerpo tiene aquel perfume tuyo
                        D           D#    D
que me recuerda como estoy sufriendo
               D#            D   Gm
y que de celos yo me estoy muriendo
Suggest correction
Give kudos to tab author, rate the tab!
1 2 3 4 5
comments
print report bad tab
guest
You may want to rate the tab now too:
select rating
Wanna post a correction for this tab? Suggest correction