Oops, an error
Loading. Please wait.

La Copa Rota Tab

40 views 1 this week
no commentswrite comment
1 2 3 4 5
3 more votes to show rating
add to favorites
launch autoscroll
font size
0
reset
how to read this tab
guitar tuner
×
Best way to learn
"La Copa Rota"
Autoscroll
slow
fast
+/-
esc
set tempo
stop
Sin muchos rodeos este es el solo de la cancion.
Suena muy bien, si le meten un poco de feeling suena excelente.
Ahi va...

E----------------------------------------|
B-----7-8-7---7h8~-----7-8-7-------------|
G--/9-------9-------/9-------9-7--5-4-4~-|
D----------------------------------------|
A----------------------------------------|
E----------------------------------------|

E--------------------------------------------------------|
B-10-8-10-10-8-7--10-10-8-7-10-8-7-12-12-10-12-10--8-9~--|
G--------------------------------------------------------|
D--------------------------------------------------------|
A--------------------------------------------------------|
E--------------------------------------------------------|

E-----------------------------------------------------------------|
B-12~-10-12-12h13---12h13-12-10-13-12-10-8---10h12-10-8-12-10-8-7-|
G-----------------------------------------------------------------|
D-----------------------------------------------------------------|
A-----------------------------------------------------------------|
E-----------------------------------------------------------------|

E------------------------------------|
B-8^7~-8^7~---13-10-12-8-10-7--------|
G-----------------------------9~-7~~-|
D------------------------------------|
A------------------------------------|
E------------------------------------|

Dedicada a mi prima 'ubicate'
cualquier sugerencia, reclamo, queja o dinero
enviar a slashperu@
Suggest correction
Give kudos to tab author, rate the tab!
1 2 3 4 5
comments
print report bad tab
guest
You may want to rate the tab now too:
select rating
Wanna post a correction for this tab? Suggest correction