Oops, an error
Loading. Please wait.

Momentos Tab

6 views 1 this week
no commentswrite comment
1 2 3 4 5
3 more votes to show rating
add to favorites
launch autoscroll
font size
0
reset
how to read this tab
guitar tuner
Autoscroll
slow
fast
+/-
esc
set tempo
stop
Help us to improve Ultimate-Guitar.com Take our survey!
×
Momentos
Los Trece Baladas

Debido a que es mi primer transcripcion seguro tiene
errores, pero a pesar de eso suena bien.

Intro:

E------------------------|---------------|
B------------------------|---------------|
G--------3-4-3-----------|-----------3---|
D-4-6--6-------6-4-3-----|-----3-4-6---4-|
A--------------------6-4-|-4-6-----------|
E------------------------|---------------|
			    
E-------------------------------|
B-----------------------------7~|
G---3-4-4h6-4-3---6/8-4-3---/8--|
D-6-------------6---------------|
A-------------------------------|
E-------------------------------|

E--------------------------|
B--------------------6-5-4-|
G---3-4-3------------7-6-5-|
D-6-------6-4-3------------|
A---------------6-4--------|
E--------------------------|

la parte que sigue no esta al 100%,
mas o menos improvisen por ahi...

E--------------9------------------------------------|
B----------9-11-11-9h11-------9h11-9h11-9h11-9------|
G-----9-11--------------9-11-------------------9-11-|
D-/11-----------------------------------------------|
A---------------------------------------------------|
E---------------------------------------------------|

antes de entrar a la voz

E-------|
B-------|
G-------|
D-------|
A-----1-|
E-2-4---|

Dedicada para toda la gente que me conoce.

cualquier comentario manden un email:
slashperu@
Suggest correction
Give kudos to tab author, rate the tab!
1 2 3 4 5
comments
print report bad tab
guest
You may want to rate the tab now too:
select rating
Wanna post a correction for this tab? Suggest correction