Oops, an error
Loading. Please wait.

Piel Bass

9 views 1 this week
no commentswrite comment
1 2 3 4 5
3 more votes to show rating
add to favorites
launch autoscroll
font size
0
reset
guitar tuner
×
Best way to learn
"Piel"
Autoscroll
slow
fast
+/-
esc
set tempo
stop
Este es el bajo de la cancion solo estan los arreglos que hacen en el coro
porque las estrofas solo sigue las notas de la guitarra sin hacer arreglos

Se llamaba piel y era como la tarde
tan dorada como el sol sobre la miel 
por su forma de reir por su mirada,
casi ingenua y procaz a la vez.

La llamaban piel y ella lo sabia,
lo sabia y explotaba su niñez,
hasta que un día la tarde se lo dijo:
¡cuídate, cuídate, cuídate!

G ----------------
D ----------------
A --------3-------
E --3-5-7---------

 Que sera de aquella flor de Piel
                           Em
G ---------------------------
D ---------------------------
A -------------------------7-
E --------------------3-2----
         C
G -----------------
D -----------------
A ---7-5-3---------
E -----------------

que sera de su mirada

G ----------------
D ----------------
A --------3-------
E --3-5-7---------

que sera cuando el otoño cruel
                           Em
G ---------------------------
D ---------------------------
A -------------------------7-
E --------------------3-2----
         C
G -----------------
D -----------------
A ---7-5-3---------
E -----------------

le madure y marchite su piel

G

DESPUES REPITES LO MISMO EN EL CORO QUE VIENE
Suggest correction
Give kudos to tab author, rate the tab!
1 2 3 4 5
comments
print report bad tab
guest
You may want to rate the tab now too:
select rating
Wanna post a correction for this tab? Suggest correction