Oops, an error
Loading. Please wait.

Quiero Beber Hasta Perder El Control Tab

52 views 3 this week
no commentswrite comment
1 2 3 4 5
3 more votes to show rating
add to favorites
launch autoscroll
font size
0
reset
how to read this tab
guitar tuner
×
Best way to learn
"Quiero Beber Hasta Perder El Control"
Autoscroll
slow
fast
+/-
esc
set tempo
stop
Para el rasgueo de acompañamiento: solM, reM, Do#,DoM y un par de
variaciones del orden de esas notas.

Riff
e ---------------------
b ---------------------
g ---------------------
d -----------?---------
a -3-3-3-3-3-(3)--2----
e -------------------3-

(0:49)
?y mientras en la calle está lloviendo? (Riff)

(1:11)
? dame otro vaso aún estoy sereno? (Riff)

(2:06)
?y mientras ella está con otro tipo? (Riff)

(2:26)
?ella se fue ¿por qué no me lo dijo?? (Riff)

SOLO (2:35)

e ------------------------------------------------------------------
b ------------------------------------------------------------------
g --------9-8-9-9-----------------------------------------------12--
d -9-8-9---------9?6-6/8--4-5-10-10-10-10-10-9-7-10-10-10-10-10-----
a ------------------------------------------------------------------
e ------------------------------------------------------------------


e ------------------------------------------------------------------
b ------------------------------------------------------------------
g -12-11-9h11-7--12-12-11-9h11-7-12-9h11-7-7h9p7-7h9p7-------5-5-5--
d -----------?------------------------------------------4-5---------
a ------------------------------------------------------------------
e ------------------------------------------------------------------


e ------------------------------------------------------------------
b ------------------------------------------------------------------
g -5-5-(5)-4-2-5-5-5-5-5-(5)-4-2-----0------------------------------
d -----------?--------------------4---------------------------------
a ----------------------------------------0-2-3-3-3-3-3-(3)-2-0-0---
e --------------------------------------3---------------------------


e -----------------------------------------------------------
b -----------------------------------------------------------
g -----------------------------------------------------------
d -----------?-----------------------------------------------
a -0-4/5-3-2-2-2-2-2-(2)-0------0-2-3-3-3-3-3-(3)-2-0-0-0----
e -------------------------3--3---------------------------2-3
(3:56)
?dame otro vaso aún estoy sereno? (Riff)

      Do#
    ======/
    ||||||
 IV oooooo
    ||||||
    ||ooo|
    ||||||


(#): Un punteo más. No estoy seguro si son 5 ó 6 veces los tiempos
     pero eso se arregla al escuchar la canción, por lo demás está
     bien.
Arriba el rock peruan, saludos a toda la LISTA C de Cajamarca!!!
Suggest correction
Give kudos to tab author, rate the tab!
1 2 3 4 5
comments
print report bad tab
guest
You may want to rate the tab now too:
select rating
Wanna post a correction for this tab? Suggest correction