Oops, an error
Loading. Please wait.

Si Me Dejas Ahora Tab

version 1
version 1

Whole song

21 views 1 this week
no commentswrite comment
1 2 3 4 5
3 more votes to show rating
add to favorites
launch autoscroll
font size
0
reset
how to read this tab
guitar tuner
×
Best way to learn
"Si Me Dejas Ahora"
Autoscroll
slow
fast
+/-
esc
set tempo
stop
Intro:

F#m (varias veces)

E-------------2
B-------------2
G-------------2
D-------------4
A---0-2-4-2-0-4
E-2-----------2
	      Si me.. 	

Solo:

E---------------------------------
B---------------------------------
G-----6-7-9~--9-9-9h7-7h6-7h6-6---
D--/7---------------------------7-
A---------------------------------
E---------------------------------

E---------------------------------------------
B---------------------------------------------
G--6-7-7-7-7-7h6-6^--7-7-7h6-6^--7-7-7h6-6^---
D---------------------------------------------
A---------------------------------------------
E---------------------------------------------

E--------------------
B--------------------
G--6-7-6---6-6-------
D--------7-----7-6-4-
A--------------------
E--------------------

Final:

E---------------
B---------------
G---------------
D---------------
A---0-2-4-2-0---
E-2-----------2-

Dedicada para toda la gente que me conoce.

cualquier comentario manden un email:
slashperu@hotmail.c
Suggest correction
Give kudos to tab author, rate the tab!
1 2 3 4 5
comments
print report bad tab
guest
You may want to rate the tab now too:
select rating
Wanna post a correction for this tab? Suggest correction