Oops, an error
Loading. Please wait.

Antes Bass

15 views 1 this week
no commentswrite comment
1 2 3 4 5
3 more votes to show rating
add to favorites
×
Save as Personal and add changes to this tab that will be seen only by you. Learn more ›
×
You can save this tab as Personal to edit and correct it or add notes. All changes will be seen only by you. Learn more »
save as personal
new!
launch autoscroll
font size
0
reset
guitar tuner
Autoscroll
slow
fast
+/-
esc
set tempo
stop
Intro:

G|------------------|
D|------------------|
A|------------5-3---|
E|-3-1-3-(x4)-----6-|


Parte A:

G|--------------|
D|--------------|
A|--------------|
E|-3---6--3---6-|


Inter 1:

G|--------------------|
D|--------------------|
A|-5-3----------5-3---|
E|-----6--3-1-3-----6-|


Inter 2:

G|----------------|
D|----------------|
A|-5-3------5-3---|
E|-----6--3-----6-|


Parte B:

G|------------------|
D|------------------|
A|-3-3-3-3----------|
E|----------6-6-6-6-|


Inter B:

G|------------------------|
D|------------------------|
A|-5-3--------------5-3---|
E|-----6--3-1-3(x2)-----6-|


Cambio parte A:

A---------------|
E-6-6-6-6-6-6-6-|

G|------------------|
D|------------------|
A|------------------|
E|-3-3-3-3--6-6-6-6-|


Parte C:

G|--------------------------------------|
D|--------------------------------------|
A|---------3-3-3-3--------------5-5-5-5-|
E|-1-1-1-1---------(x3)-4-4-4-4---------|

Bueno este tab puede que no este bueno xq
Yo no soy bajista ,soy guitarrista, pero igual
suena bien.
Lo sake en base a las notas de guitarra...
Esta super fácil solo escuchen el tema
Y sabrán donde va cada parte...


Grande los tr3s! La mejor banda de chile

Saludos al 4to medio A 2009 del san Carlos
De quilicura.
Suggest correction
Give kudos to tab author, rate the tab!
1 2 3 4 5
comments
print report bad tab
guest
Wanna post a correction for this tab? Suggest correction