Oops, an error
Loading. Please wait.

Bip Bip Tab

version 2
version 2

Whole song

4 views 1 this week
no commentswrite comment
1 2 3 4 5
3 more votes to show rating
add to favorites
launch autoscroll
font size
0
reset
how to read this tab
guitar tuner
×
Best way to learn
"Bip Bip"
Autoscroll
slow
fast
+/-
esc
set tempo
stop
Intro-Coros

e-------------------------
B-------------------------
G------------------------- X3
D-----5-----3------3------
A-------3-5----3h5--------
E--3------------------6---


e-------------------------
B-------------------------
G-------------------------
D-----5-----3------3------ X1
A-------3-5----3h5--------
E--3-----------------1-3--


Versos1

e-------------------------
B-------------------------
G-------------------------
D-------------------------
A-------------------------
E--1-3----3-6-5-3----1-3--


e---------------------------------------
B---------------------------------------
G---------------------------------------
D---------8-----6------6----7-----5-----
A-----------6-8----6h8--------5-7-------
E--6-5-6------------------9---------1-3-


Versos2

e-------------
B-------------
G-------------
D------3------
A--3h5--------
E--------6-3--


Fin

G    A     A#       X...
A#   A     G


SOL
Ahí viene gente que no quiero ver
Siempre es lo mismo y no voy a aprender
LA#                     LA 
A ver el mundo desde otros pies
SOL 
El vertigo mata y a ti tambien

(mismo acordes)
Ahí viene gente que habla de mi
Estupidez eterna habra que resistir
El aburrimiento es lo que perdi
Y es asi me muero de ganas
De verte sangrando aquí

SOL - FA
Bip bip x 4

(mismos acordes)
Un martillo roto por un clavo soy
Una hacha hecha pedazos por un arbol soy
No importa lo que digas solo importo yo
Tengo tantas cicatrices que ya no hay dolor

Hay gente buena que da igual
Hay gente mala que es la que importa mas
Tengo pocos amigos pero son de verdad
Ese es el punto y no hay que olvidar
Ese es el punto que no hay que olvidar


Este tema es bien Beatles, bueno ahí puse todas las partes del tema
toquenlas y sabran ubicarlas en la canción.

Saludos a todos los seguidores de Los Tr3s que asistieron al recital!!!!
Suggest correction
Give kudos to tab author, rate the tab!
1 2 3 4 5
comments
print report bad tab
guest
You may want to rate the tab now too:
select rating
Wanna post a correction for this tab? Suggest correction