Oops, an error
Loading. Please wait.

Camino Bass Tab

46 views 1 this week
no commentswrite comment
1 2 3 4 5
3 more votes to show rating
add to favorites
launch autoscroll
font size
0
reset
guitar tuner
×
Best way to learn
"Camino"
Autoscroll
slow
fast
+/-
esc
set tempo
stop
INTRO
  C7               D7               G7               C7
G-------2-3-2-----|------4-5-4-----|----------------|------2-3-2-----
D---2-5-------5-2-|--4-7-------7-4-|5-3-2-0-5-3-2-0-|--2-5-------5-2-
A-3---------------|5---------------|----------------|3---------------
E-----------------|----------------|----------------|----------------

VERSO (IGUAL QUE LA INTRO)

CORO

G-------|------|----|----|
D-------|------|----|----|
A-------|------|----|5---|
E-5-3-1-|5-3-1-|0-5-|--3-|
Suggest correction
Give kudos to tab author, rate the tab!
1 2 3 4 5
comments
print report bad tab
guest
You may want to rate the tab now too:
select rating
Wanna post a correction for this tab? Suggest correction