Oops, an error
Loading. Please wait.

Camino Tab

37 views 1 this week
no commentswrite comment
1 2 3 4 5
3 more votes to show rating
add to favorites
launch autoscroll
font size
0
reset
how to read this tab
guitar tuner
Autoscroll
slow
fast
+/-
esc
set tempo
stop
Help us to improve Ultimate-Guitar.com Take our survey!
×
Intro: C7 - D7 - G7


C7                D7   G7                          C7
Camino, camino sin ti, por tu sendero que no tiene fin
C7                     D7     G7               C7
Paso por ciudades sin hablar, piso senderos y mar
C7                D7   G7                      C7
Sigo, no se donde voy, tu lucero mira donde estoy.


coro

Am           G          F   Am         G             F
Habra sido buey o una vaca, habra sido Cristo o una Santa
G      Am     Em       G7
O algo mejor, o algo peor


C7                  D7  G7                           C7
Camino, me alejo de ti, por tu sendero que no tiene fin
        C7                  D7  G7                           C7
Por eso camino, me alejo de ti, por tu sendero que no tiene fin

cuando entre el piano estas son las notas en guitarra
(C7 - D7 - G7 - C7)


riff

     C7

e |------------------------------------|
b |---13--12--13--12--13--12--13-13----|
g |---12--11--12--11--12--11--12-12----|
d |------------------------------------|
a |------------------------------------|
E |------------------------------------|

      D7

e |-------------------------|
b |---15--14--15--14--13----|
g |---14--13--14--13--12----|
d |-------------------------|
a |-------------------------|
E |-------------------------|

      G7                   C7

e |---15--14--15--14--13------------|
b |---15--14--15--14--13--16--13----|
g |-----------------------15--12----|
d |---------------------------------|
a |---------------------------------|
E |---------------------------------|

     C7              D7

e |------20------20--22--21--22--21--22-------|
b |--13--20--13--20--22--21--22--21--22-------|
g |--12------12-------------------------------|
d |-------------------------------------------|
a |-------------------------------------------|
E |-------------------------------------------|

      G7                  C7

e |---15--14--15--14--13------------|
b |---15--14--15--14--13--16--13----|
g |-----------------------15--12----|
d |---------------------------------|
a |---------------------------------|
E |---------------------------------|


(LAm - SOL - FA)


Coro


Am         G          F
Habra sido rey o un engendro,
Am            G              F
solo para un monstruo eres ejemplo
G        Am       Em      G7
De algo mejor o de algo peor


C7                  D7  G7                           C7
Camino, me alejo de ti, por tu sendero que no tiene fin
        C7                  D7  G7                     C7
Por eso camino, me alejo de ti, y muero por volver a vivir
D7      G7             C7
y muero por volver a vivir
D7      G7             C7
y muero por volver a vivir


-------------------------------------------------------------------

El coro se puede tocar asi tambien...
o si lo tocas con 2 guitarras esta seria la segunda guitarra


Am           G        F             Am     G          F
Habra...    Buey o una vaca       Habra... Cristo o una santa
      E |---------|--------------|     ---------|------------|
      B |---------|-----------1--|     ---------|----------1-|
      G |-------4-|-------2------|     -------4-|------2-----|
      D |-----5---|-----3---3----|     -----5---|----3---3---|
      A |---------|--------------|     ---------|------------|
      E |---3-----|---1----------|     ---3-----|--1---------|


G       Am      Em     G7
O algo mejor, o algo peor


bueno esta seria mi transcripción espero que les guste
si encuentran algun error o corrección se comunican
a traves de mi mail adios
LOS TRES han regresado..........
Francisco Moreno
--------------------------------------------------------------

       C7                 D7
e |--3------|      e |--5------|
b |----5----|      b |----7----|
g |--3------|      g |--5------|
d |----5----|      d |----7----|
a |--3------|      a |--5------|
E |--3------|      E |--5------|


       G7
e |--3------|
b |--3------|
g |--3--4---|
d |--3------|
a |--3--5---|
E |--3------|
Suggest correction
Give kudos to tab author, rate the tab!
1 2 3 4 5
comments
print report bad tab
guest
You may want to rate the tab now too:
select rating
Wanna post a correction for this tab? Suggest correction