Oops, an error
Loading. Please wait.

Carcel Hospital Y Cementerio Tab

version 1
version 1

Whole song

134 views 1 this week
no commentswrite comment
1 2 3 4 5
3 more votes to show rating
add to favorites
launch autoscroll
font size
0
reset
how to read this tab
guitar tuner
Autoscroll
slow
fast
+/-
esc
set tempo
stop
Help us to improve Ultimate-Guitar.com Take our survey!
×
La canción no es muy dificil de tocar, aca la tienen:

Introducción :(ambas guitarras)

E||----------------------------|
B||----------------------------|
G||----------------------------|
D||--2--2--2---2--2--2--2---2--|
A||--0--0--2S--3--0--0--2S--3--|
E||----------------------------|

--------------------------||
--------------------------||
--------------------------||
--2--2--2---2--2----------||
--0--0--2S--3--0--2-------||
------------------0-------||

La guitarra ritmica toca los acordes en posición de 5

Estrofas:

Lam (se toca como en la introducción pero sin el Mi)
He sido Pordiosero y Mendigo
He sido Capitán de la Fragata

REm                 MI7
Ladrón, mentiroso y canalla
    LAm
Un vil roedor y un calaca
   MI7                     REm
Tengo predilección por el Desastre
   LAm
Y todo por tu amor querida mía

Corría la mitad ya de mi Vida
Los años multiplicaban la ira
Un chuzo, una palanca y una silla
Terminaron por apagar muchas vidas
Tengo predilección por la Tragedia
Y todo por tu amor querida mía

La guitarra solista toca estos acordes:

    LAm  REm  MI7
E||--5----5----0----|-------||
B||--5----6----5----|-------||
G||--5----7----7----|-------||
D||--7----7----6----|-------||
A||--7----5----7----|-------||
E||--5--------------|-------||

Escuchen bien la canción para tocar bien el rasgueo.

Coro:( Guitarra Ritmica)

REm
Te conocí entre mucha gente
  LAm
Te escogí al verte de frente
   SI7               FA
Y mientras me miraba acariciaba
   SI7
La idea de quedarme aquí

REm
Una flor me hizo recordarte
  LAm
El pastizal donde fui tu amante
  SI7                    FA
Y mientras se quemaba yo juraba
  MI7
Matar y Robar por ti

(Guitarra solista)

     REm
     H        Q    Q
E||--5--------8----7----|
B||--6--------6----6----|
G||--7--------7----7----|
D||--7--------7----7----|
A||--5--------5----5----|
E||---------------------|


  LAm                   SI7      FA
  H        Q    Q       H        H
--5--------7----5----|--2--------1--------|
--5--------5----5----|--4--------1--------|
--5--------5----5----|--2--------2--------|
--7--------7----7----|--4--------3--------|
--7--------7----7----|--2--------3--------|
--5--------5----5----|-----------1--------|


   SI7                 REm
   W                   H        Q    Q
---7----------------|--5--------8----7----|
--10----------------|--6--------6----6----|
---8----------------|--7--------7----7----|
---7----------------|--7--------7----7----|
---9----------------|--5--------5----5----|
---7----------------|---------------------|


  LAm                   SI7      FA
  H        Q    Q       H        H
--5--------7----5----|--2--------1--------|
--5--------5----5----|--4--------1--------|
--5--------5----5----|--2--------2--------|
--7--------7----7----|--4--------3--------|
--7--------7----7----|--2--------3--------|
--5--------5----5----|-----------1--------|


   SI7      MI7
   H        H
---7--------7--------||
--10--------9--------||
---8--------7--------||
---7--------9--------||
---9--------7--------||
---7-----------------||

Son los mismo acordes pero con algunos arreglos.

Punteo Intrumental: (ambas guitarras)

E||-----------------------|
B||-----------------------|
G||*----------------------|
D||*--2----2----4----2----|
A||---0----3----5----3----|
E||-----------------------|

                       3x
-----------------------||
-----------------------||
----------------------*||
--2-------------------*||
--0--------------------||
-------0----3----4-----||


-----------------------------|
-----------------------------|
-----------------------------|
--2--2----2--2----2----2--2--|
--0--0--2g3--0----0--2g3--0--|
-----------------------------|


-----------------------------||
-----------------------------||
-----------------------------||
--L--2----2--2----2----2-----||
--L--0--2g3--0----0--2g3-----||
-----------------------------||

Prefiero la Hecatombe a estar tranquilo
Me quedo con el Hurto y la Calumnia
Hoy robo por amor y también mato
Yo cierro las cortinas de la gente
Decido yo quién vive y quién muere
Te voy a hacer feliz hasta la muerte

He sido Traidor y turbulento
He sido Pecador sin sentimientos
He estado acusado en el banquillo
Yo soy el Príncipe en el castillo
Y nunca tendré yo remordimientos
Y todo por tu amor querida mía

Te conocí entre mucha gente
Te escogí al verte de frente
Y mientras me miraba acariciaba
La idea de quedarme aquí

Una flor me hizo recordarte
El pastizal donde fui tu amante
Y mientras se quemaba yo juraba
Matar y Robar por ti

*El solo tocan los acordes de la Estrofa*

Te conocí entre mucha gente
Te escogí al verte de frente
Y mientras me miraba acariciaba
La idea de quedarme aquí

Una flor me hizo recordarte
El pastizal donde fui tu amante
Y mientras se quemaba yo juraba
Matar y Robar por ti

Para el final se toca el Punteo Instrumental y se repite el Lam
hasta terminar la canción.
Suggest correction
Give kudos to tab author, rate the tab!
1 2 3 4 5
comments
print report bad tab
guest
You may want to rate the tab now too:
select rating
Wanna post a correction for this tab? Suggest correction