Oops, an error
Loading. Please wait.

De Hacerse Se Va A Hacer Bass

95 views 1 this week
no commentswrite comment
1 2 3 4 5
3 more votes to show rating
add to favorites
×
Save as Personal and add changes to this tab that will be seen only by you. Learn more ›
×
You can save this tab as Personal to edit and correct it or add notes. All changes will be seen only by you. Learn more »
save as personal
new!
launch autoscroll
font size
0
reset
guitar tuner
Autoscroll
slow
fast
+/-
esc
set tempo
stop
Este es tema es genial! ud. hagan algunos detalles...  
un saludo para Ud. Claudia !

A)Intro
G |-------------------------------------------------------------------
D |-----5-3-1----5-3-1----5-3-1-----5535------------------------------
A |----------1~-------3~-------1~-------------------------------------  2X
E |--5~---------------------------------------------------------------

 B)0:19
G |-------------------------------------------------------------------
D |-------------------------------------------------------------------
A |-------------------------------------------------------------------  2X
E |--03-4-2---03-4-2---03-4-2---03-4-2--------------------------------
 
 C)0:35   
G |-------------------------------------------------------------------
D |---------535----------535----------535-----------------------------
A |-5-53-31------5-53-31------5-53-31---------------------------------
E |-------------------------------------------------------------------

G |-------------------------------------------------------------------
D |-------------------------------------------------------------------
A |--5~-86------------------------------------------------------------
E |-------86-10~--11-10--10-8--8-6--6-5-------------------------------

 B)0:53
G |-------------------------------------------------------------------
D |-------------------------------------------------------------------
A |-------------------------------------------------------------------  2X
E |--03-4-2---03-4-2---03-4-2---03-4-2--------------------------------
 
 A)1:08
G |-------------------------------------------------------------------
D |-----5-3-1----5-3-1----5-3-1-----5535------------------------------
A |----------1~-------3~-------1~-------------------------------------  2X
E |--5~---------------------------------------------------------------

 C)1:25  
G |-------------------------------------------------------------------
D |---------535----------535----------535-----------------------------
A |-5-53-31------5-53-31------5-53-31---------------------------------
E |-------------------------------------------------------------------

G |-------------------------------------------------------------------
D |-------------------------------------------------------------------
A |--5~-86------------------------------------------------------------
E |-------86-10~--11-10--10-8--8-6--6-5-------------------------------

 D)1:43
G |-------------------------------------------------------------------
D |-----5-3-----5-3-----5-3-----5-3-----5-3-----5-3-----5-3-----5535--
A |-------------------------------------------------------------------
E |--02------02------02------02------02------02------02------02-------

 A)1:59
G |-------------------------------------------------------------------
D |-----5-3-1----5-3-1----5-3-1-----5535------------------------------
A |----------1~-------3~-------1~-------------------------------------  5X
E |--5~---------------------------------------------------------------
   
   2:38 
G |-------------------------------------------------------------------
D |-----5-3-1----5-3-1----5-3-1---------------------------------------
A |----------1~-------3~-------1~~------------------------------------  
E |--5~---------------------------------------------------------------

manden cosas de Bajo !!
Chau !!
Suggest correction
Give kudos to tab author, rate the tab!
1 2 3 4 5
comments
print report bad tab
guest
Wanna post a correction for this tab? Suggest correction