Oops, an error
Loading. Please wait.

El Arrepentido Tab

version 2
version 2

Whole song

101 views 1 this week
no commentswrite comment
1 2 3 4 5
3 more votes to show rating
add to favorites
launch autoscroll
font size
0
reset
how to read this tab
guitar tuner
×
Best way to learn
"El Arrepentido"
Autoscroll
slow
fast
+/-
esc
set tempo
stop
El Arrepentido

Aqui esta buena cancion pa tocar en septiembre o con los amigos
aunque igual es dificil de tocarla bien cuando son 2 o mas
esta version esta bien completa, aunque no inclui la guitarra 2
mientras se canta... no quise... me da flojera.


_ _ _ _ _ _ _
             |
Intro: (bajo)|
_ _ _ _ _ _ _|

aqui empieza la cueca...

E|-------------------------|
B|-------------------------|
G|-------------------------|
D|-------------------------|
A|---2-2---4-6-------------|
E|---0-0---2-4-------------|

Guitarra 1: A-E-A-E (mientras la guitarra 2 hace lo suyo)

Guitarra 2:
            A           E
E|----------5----5---5|-------|
B|------5-5-5--5-5-5-5|-9-8-9-|
G|------6-6----6---6--|-9-8-9-|
D|--------------------|-------|
A|--------------------|-------|
E|--------------------|-------|
              E           A         (x2)
E|------------------7--|-5-4--|
B|----------9-9-9-9-9-9|-5-4--|    /
G|----------9-9-9-9---9|------|   /
D|---------------------|------|  /
A|---------------------|------| /
E|---------------------|------|/

Guitarra 1 y 2: A-E-A-E

 MI                   LA
Caramba Que Noche Tan Silenciosa
                         MI
Caramba Me Tienen Detras Las Rejejas
        LA                         MI
Caramba Me Tienen Detras Las Rejejas
        LA                         MI
Caramba Me Matan El Veinticinco
        LA                    MI
Caramba Escucha Madre Mis Quejas
        LA                     MI
Caramba Que Noche Tan Silenciosa
        LA                     MI
Estoy Arrepentido Tenga Presente
          LA                    MI
Solo Queda El Indulto Del Presidente
                LA                 MI
Estoy Arrepentido Tenga Presente
          LA                    MI
Del Presidente Si ,Deme El Perdón
               LA               MI
Quiero Morir Tranquilo En La Prision
                    LA              MI
Se Apago La Guitarra Del Viejo Parra

E|-----------------------------0--|
B|--------------------------0--0--|
G|-----------------------1--1-----|
D|--------------------2--2--------|
A|--2-2-0-------------2-----------|
E|--------3-2-0-------------------|

A: 577655
E: x79997

bueno... ahi esta todo lo q se... aunque mientras
se canta, la guitarra 2 se hace punteos q no los puse,
son solo las pocisiones de los acordes y se tocan de
a 2 cuerdas, y casi ni se escuchan... por lo menos esta,
está mejor q la otra. ¡¡viva la musica chilena!!
...y el metal
Suggest correction
Give kudos to tab author, rate the tab!
1 2 3 4 5
comments
print report bad tab
guest
You may want to rate the tab now too:
select rating
Wanna post a correction for this tab? Suggest correction