Oops, an error
Loading. Please wait.

Flores Secas Bass

1,249 views 6 this week
no commentswrite comment
1 2 3 4 5
3 more votes to show rating
add to favorites
×
Save as Personal and add changes to this tab that will be seen only by you. Learn more ›
×
You can save this tab as Personal to edit and correct it or add notes. All changes will be seen only by you. Learn more »
save as personal
new!
launch autoscroll
font size
0
reset
guitar tuner
Autoscroll
slow
fast
+/-
esc
set tempo
stop
intro:
G---------------------------------------------
D----7--------------------------7-------------
A-0-----5-6-7--7-------------------5-6-7------
E----------------7-0---0-3-3-5----------------

verso i
 --------------------------------------------------
 ----7--------------------7------------------------
 -0-----5-6-7--7-------0-----5-6-7--7--------------
 ----------------8--7-----------------8--7---------

 --------------------------------------------------
 ----7--------------------7------------------------
 -0-----5-6-7--7-------0-----5-6-7--5--7--7-5-7----
 ----------------8--8------------------------------

verso ii
 --------------------------------------------------
 ----7---------------------7-----------------------
 -0-----5-6-7--7--------0-----5-6-7--7-------------
 -----------------8--7-----------------8--7--------

 ---------------------------------------------
 ----7---------------------7------------------
 -0-----5-6-7--7--------0-----5-6-7--7--------
 -----------------8--8-----------------8------

coro 1
 ---------------------------------------------------
 --------------------------------7------------------
 -----------------------------0-----5-6-7--5-6-7----
 -5-6-7--7--7--7--6--6--6--6------------------------

 -------------------------------------------------
 ---------------------------------7---------------
 -------------------------------------------------
 -5-6-7--7--7--7--6--6--6--6p0-5-------0--3--4----

 ------------------------------------
 ----7-------------7-----------------
 -0-----5-6-7---0-----5-6-7--7-7-7\--
 ------------------------------------

 ------------------------------------------7-8-9----
 ----7---------------------------7------------------
 -0-----5-6-7--7-5-7-5-7-5-7--0-----5-6-7-----------
 ------------------------------------------------0--

primer solo de guitarra  (1:18)
 ----------------------------------------------------
 ----7--------------------7-7-7-7-----------7--------
 -0-----5-6-7-7--6--5--3-----------5/7---0-----5-7---
 ----------------------------------------------------

verso iii
 ---------------------------------------------------
 ----7-----------------------7----------------------
 -0-----5-6-7-7--5--------0-----5-6-7-7--5----------
 -------------------8--7--------------------8--7----

 ------------------------------------------------------------
 ----7-------------------------------------------------------
 -0-----5-6-7--5---------------5--6--7--9--10--11--12\-0--7--
 -----------------8--7---5--8--------------------------------

 ----------------------------------------------------------
 ----7-----------------------7-----------------------------
 -0-----5-6-7-7--5--------0-----5-6-7--7--5--7---7--5--7---
 -------------------8--7-----------------------------------

 ---------------------
 ----7----------------
 -0-----5-6-7--7------
 -----------------8---

 ----------------------------------------------
 --------------------------------7-------------
 -----------------------------0----------------
 -5-6-7--7--7--7--6--6--6--6---------0--2--3---

  (2:12)
 ----------------------------------------------------
 ----------------------------------------------------
 -0--3--0-----------------0--3--5--6--7--9--10--9----
 ----------3--0--2--3--4-----------------------------

 -----------------------------
 -----------------------------
 -0--3--0---------------------
 ----------3--0--2--3--4------

  (2:26)
 ----------------------------------------------------
 ----------------------------------------------------
 -0--3--5--6--7--9--8--7---0--3--5--6--7-------------
 -----------------------------------------7--0--3----

 ----------------------------------------------------
 ----------------------------------------------------
 -0--3--5--6--7-----------0--3--5--6--7--9--8--7-----
 ----------------7--0--0-----------------------------

  (2:43)
 ----------------------------------------------------
 ----------------------------------------------------
 -0--3--5--6--------------0--3--5--6--7--9--8--7-----
 -------------0--2--3--4-----------------------------

 --------------------------------------------------------
 --------------------------------------------------------
 -0--3--5--7--------------0--3--5--6--7--9--10--11--12\--
 -------------0--1--2--3---------------------------------

  (3:00)
 -----------------------------------------------------
 -----------------------------------------------------
 -0--3-----------------0--3--5--6--7--9--10--11--12---
 -------3--0--1--2--3---------------------------------

 -----------------------------------------------------
 -----------------------------------------------------
 -0--3--5--7-----------0--3--5--6--7-7--5--7--7-5-7---
 -------------7--0--3---------------------------------

 -----------------------------------------------------
 -----------------------------------------------------
 -0--3--0-----------------0--3--5--6--7--9--10--9-----
 ----------3--0--2--3--4------------------------------

 ---------------------------------------------------------
 ---------------------------------------------------------
 -0--3--5--6--7-7--5--7--7-5-7--0--3--5--6--7--9--10--9---
 ---------------------------------------------------------

  (3:32)
 -------------------------------------------
 -------------------------------------------
 -0-0--3-3--0-0-----------------------------
 ----------------3-3--0-0--2-2--3-3--4-4----

 -------------------------------------------------
 -------------------------------------------------
 -0-0--3-3--5-5--6-6--7-7-7-7-7-7-6-7-6-7-5-7-5---
 -------------------------------------------------

 -------------------------------------------
 -------------------------------------------
 -0-0--3-3--0-0-----------------------------
 ----------------3-3--0-0--1-1--2-2--3-3----

 ------------------------------
 ---------7-5------------------
 -0-3-5-7-----5-7-7--4h5h7-0---
 ------------------------------
Suggest correction
Give kudos to tab author, rate the tab!
1 2 3 4 5
comments
print report bad tab
guest
Wanna post a correction for this tab? Suggest correction