Oops, an error
Loading. Please wait.

Jazz Huachaca Tab

version 2
version 2

Whole song

98 views 1 this week
no commentswrite comment
1 2 3 4 5
3 more votes to show rating
add to favorites
×
Save as Personal and add changes to this tab that will be seen only by you. Learn more ›
×
You can save this tab as Personal to edit and correct it or add notes. All changes will be seen only by you. Learn more »
save as personal
new!
launch autoscroll
font size
0
reset
how to read this tab
guitar tuner
Autoscroll
slow
fast
+/-
esc
set tempo
stop
Bueno para los que lo pidieron aui estan
los acordes del gran Jazz Huechaca.
(En meoria de Roberto Parra)

Lista de acordes 2da guitarra

    EADGBe
G:  x5543x
D9: x5455x
C9: x3233x
E:  022100
Am: x02210
A7: x02020
D:  xx0232
D7: xx0212

Comienza con el bajo y la 2da guitarra haciendo:

e------------------------
B------------------------
G------------------------
D------------------------    x3  Ustedes le ponen el estilo ahí.
A------------------------
E-3-x-7-x-5-x-10-10-10---


 G                                 G                                      D9
e--------------------------------------------------------------------------8-
B---------------------------------12-----------------------------------------
G-7-8-9-7-8-9-7-8-9-7-8-9-7-8-9-/-12----7-8-9-7-8-9-7-8-9-7-8-9-7-8-9--9-9---
D---------------------------------12-----------------------------------------
A----------------------------------------------------------------------------
E----------------------------------------------------------------------------
                                            D9
e--------------------------------------------8---
B------------------------------------------------
G-9-10-11-9-10-11-9-10-11-9-10-11-9-10-11--9-----
D------------------------------------------------
A------------------------------------------------
E------------------------------------------------
                                  G
e------------------------------------------------
B---------------------------------12-------------
G-7-8-9-7-8-9-7-8-9-7-8-9-7-8-9-/-12-------------
D---------------------------------12-------------
A------------------------------------------------
E------------------------------------------------
          D9                                                           G
e---------------------------------------------10------10----10------------
B--------------------------------------------------12----12----12--10--8--
G-9-10-11-9-10-11-9-10-11-9-10-11-9-10-11--11-----------------------------
D-------------------------------------------------------------------------
A-------------------------------------------------------------------------
E-------------------------------------------------------------------------
                                                       G
e----------------------------------------------------------
B-------8----8---8---8---------------------------------12--
G-7-8-9----9---9---9---7-8-9-7-8-9-7-8-9-7-8-9-7-8-9-/-12--
D------------------------------------------------------12--
A----------------------------------------------------------
E----------------------------------------------------------
                                   D9
e-----------------------------------8------------
B------------------------------------------------
G-7--8-9-7-8-9-7-8-9-7-8-9-7-8-9--9--------------
D------------------------------------------------
A------------------------------------------------
E------------------------------------------------

e--------------------------------------------8---
B------------------------------------------------
G-9-10-11-9-10-11-9-10-11-9-10-11-9-10-11--9-----
D------------------------------------------------
A------------------------------------------------
E------------------------------------------------
                                   G
e------------------------------------------------
B---------------------------------12-------------
G-7-8-9-7-8-9-7-8-9-7-8-9-7-8-9-/-12-------------
D---------------------------------12-------------
A------------------------------------------------
E------------------------------------------------
          D9                                                           G
e---------------------------------------------10------10----10------------
B--------------------------------------------------12----12----12--10--8--
G-9-10-11-9-10-11-9-10-11-9-10-11-9-10-11--11-----------------------------
D-------------------------------------------------------------------------
A-------------------------------------------------------------------------
E-------------------------------------------------------------------------
                         D9
e--------------------------------------------------------------------------
B-------8----8---8-------10--10----10-10-10--------10-10-10---12-12-12-----
G-7-8-9----9---9----7--9--9---9-----9--9--9--7--9---9--9--9---11-11-11-----
D------------------------10---9/10-10-10-10--------10-10-10---12-12-12-----
A--------------------------------------------------------------------------
E--------------------------------------------------------------------------
  G         C9           G
e------------------------------------------------
B-8---8-----11-11-11-11--8^^^----8---8---8---8---
G---9----9---9--9--9--9--------9---9---9---9-----
D-----------12-12-12-12--------------------------
A------------------------------------------------
E------------------------------------------------
       D9
e-------------------------------------------------------
B------10---10-----10-10-10--------10-10-10--12-12-12---
G-7--9--9----9------9--9--9--7--9---9--9--9--11-11-11---
D------10----9/10--10-10-10--------10-10-10--12-12-12---
A-------------------------------------------------------
E-------------------------------------------------------
  G              C9           G                                E
e---------------------------------------------------------------------
B-8-8-8---8-8-8--11-11-11-11--8^^^----8---8---8-----------------------
G-------9---------9--9--9--9--------9---9---9-------------------------
D----------------12-12-12-12-----------------------9-10-12--9---------
A---------------------------------------------------------------------
E--------------------------------------------------------------0~-----
                         Am                           A7         D-D7
e---------------------------------------------------------------------
B------------------------------------------------------8^^^-7---------
G-9-9-8-9-8-9-8-9-8-9-8-9-7-------------------4-5-5----9-------9--7---
D---------------------------9-7---------4-6-7---------10--------------
A-------------------------------7-5-6-7---------------10--------------
E---------------------------------------------------------------------

***********************************************************************

           D9
e---------------------------------------------------------------------
B---------------------------------------------------------------------
G-7--9-10--9/11--9-----9/11--9-----9/11--9/11--9----9/11--9-----------
D-9-10-11-10/12-10-7--10/12-10-7--10/12-10/12-10-7-10/12-10--7~(h9)---
A-+-----+---------------------------------------------------------------
E-+-----+---------------------------------------------------------------
  \_____/ ->en esta parte la 2da guitarra hace lo mismo pero
            en la 2da y 3era cuerda:
                                    B-3-5-6-- Y sigue con los acordes
                                    G-4-5-6-- de arriba.

              G
e-------------------------------
B-------------8^^^---8---8---8--
G---7---7---7------9---9---9----                       x2  lo que está
D-9---9---9---------------------                      entre *
A-------------------------------
E-------------------------------
***********************************************************************
 G                          G                              D9
e------------------------------------------------------------------------8-
B---------------------------------12---------------------------------------
G-7-8-9-7-8-9-7-8-9-7-8-9-7-8-9-/-12----7-8-9-7-8-9-7-8-9-7-8-9-7-8-9--9---
D---------------------------------12---------------------------------------
A--------------------------------------------------------------------------
E--------------------------------------------------------------------------
                                   D9
e--------------------------------------------8---
B------------------------------------------------
G-9-10-11-9-10-11-9-10-11-9-10-11-9-10-11--9-----
D------------------------------------------------
A------------------------------------------------
E------------------------------------------------
                                  G
e------------------------------------------------
B---------------------------------12-------------
G-7-8-9-7-8-9-7-8-9-7-8-9-7-8-9-/-12-------------
D---------------------------------12-------------
A------------------------------------------------
E------------------------------------------------
          D9                                               G
e------------------------------------------10-------10----10------------
B------------------------------------------12----12----12----12--10--8--
G-9-10-11-9-10-11-9-10-11-9-10-11-9-10-11--11---------------------------
D-----------------------------------------------------------------------
A-----------------------------------------------------------------------
E-----------------------------------------------------------------------
  G
e-----------------------------------------------------------------------
B-------8----8---8---8--------------------------------------------------
G-7-8-9----9---9---9----7-8-9--7-7-8-9--7-7-8-9-9-9-8-9-8-9-8-9-8-9-8-9-
D-----------------------------------------------------------------------
A-----------------------------------------------------------------------
E-----------------------------------------------------------------------


e-----------------------------------------------------------------------
B----------------10-10-10-12--8---8---------------8---------------------
G-7--8-9-9-7-9-7----------------9-----------7-9-9---9-9-8-8---7---7-8-9-
D---------------------------------------9-9-----------------9---9-------
A------------------------------------10---------------------------------
E-----------------------------------------------------------------------

               D9                                  G
e---------------------------------------------------------10-10-10-10-10-10-
B-8-10----10----8--8-7-7-5/7-5/7-5/7--7-8^^^-8-10^^^-10-12------------------
G-9-11--11--11-9---9-7-7-5/7-5/7-5/7--7-9^^^-9-11^^^-11---------------------
D---------------------------------------------------------------------------
A---------------------------------------------------------------------------
E---------------------------------------------------------------------------

                                     D9
e-10-10-11-12--10-10-11-12--10-10-11-12-10-------------
B------------------------------------------12-10-------
G------------------------------------------------11----
D---------------------------------------------------12-
A------------------------------------------------------
E------------------------------------------------------


e-10-10-11-12-12-10-12-10-12-10------------------
B-------------------------------10---------------
G------------------------------------------------
D------------------------------------------------
A------------------------------------------------
E------------------------------------------------

        E
e------------------------------------------------
B-10-10-11-12-12-12-11-12-11-12-11-12-12----------
G------------------------------------------------
D------------------------------------------------
A------------------------------------------------
E------------------------------------------------

                                    Am
e----------------------------------------12-------------------
B-12-12-12-13-13-13-12-12-12-13-13-13-12----12---12-12-11-10--
G-------------------------------------------------------------
D-------------------------------------------------------------
A-------------------------------------------------------------
E-------------------------------------------------------------

       A7          D9                   G
e---------------------------------------3-3-3-3-3-3-3---
B-----------------10-10-10--12/---------3-3-3-3-3-3-3---
G-7-7-8-9-9-7-9-7-----------------------4-4-4-4-4-4-4---
D---------------------------------------5-5-5-5-5-5-5---
A---------------------------------------5-5-5-5-5-5-5---
E---------------------------------------3-3-3-3-3-3-3---

 G                          G                                D9
e--------------------------------------------------------------------------8-
B---------------------------------12-----------------------------------------
G-7-8-9-7-8-9-7-8-9-7-8-9-7-8-9-/-12----7-8-9-7-8-9-7-8-9-7-8-9-7-8-9--9-9---
D---------------------------------12-----------------------------------------
A----------------------------------------------------------------------------
E----------------------------------------------------------------------------
                                             D9
e---------------------------------------------8--
B--------------------------------------------10--
G-9-10-11-9-10-11-9-10-11-9-10-11-9-10-11--9--9--
D------------------------------------------------
A------------------------------------------------
E------------------------------------------------
                          G
e------------------------------------------------
B---------------------------------12-------------
G-7-8-9-7-8-9-7-8-9-7-8-9-7-8-9-/-12-------------
D---------------------------------12-------------
A------------------------------------------------
E------------------------------------------------
          D9                                                 G
e---------------------------------------------10------10----10------------
B--------------------------------------------------12----12----12--10--8--
G-9-10-11-9-10-11-9-10-11-9-10-11-9-10-11--11-----------------------------
D-------------------------------------------------------------------------
A-------------------------------------------------------------------------
E-------------------------------------------------------------------------
                   D9
e------------------------12-12-12-12-12-12-----------------------------------
B-------8---8---8-----10-----------------------10-10-9-10--11-11-10-11-10-11-
G-7-8-9---9---9---7-9----------------------7-9-------------------------------
D----------------------------------------------------------------------------
A----------------------------------------------------------------------------
E----------------------------------------------------------------------------
  G              C9           G
e---------------------------------------------------
B-8-8-8---8-8-8--11-11-11-11--8-8-8---8---8---8---8-
G-------9-----9---9--9--9--9--------9---9---9---9---
D----------------12-12-12-12------------------------
A---------------------------------------------------
E---------------------------------------------------
      D9
e-----------------------------------------------------
B-----10--10----10-10-10-------10-10-10--12-12-12-12--
G-7-9--9---9-----9--9--9--7-9---9--9--9--11-11-11-11--
D-----10---9/10-10-10-10-------10-10-10--12-12-12-12--
A-----------------------------------------------------
E-----------------------------------------------------
  G              C9           G                            E
e---------------------------------------------------------------------
B-8-8-8---8-8----11-11-11-11--8^^^----8---8---8-----------------------
G-------9-----9---9--9--9--9--------9---9---9-------------------------
D----------------12-12-12-12-----------------------9-10-12--9---------
A---------------------------------------------------------------------
E--------------------------------------------------------------0~-----
                        Am                            A7            D9
e-----------------------------------------------------------------------
B------------------------------------------------------8-8-8--7---------
G-9-9-8-9-8-9-8-9-8-9-8-9-7-------------------4-5-5----9---------9--7---
D---------------------------9-7---------4-6-7---------10----------------
A-------------------------------7-5-6-7---------------10----------------
E-----------------------------------------------------------------------

e-10-10-10-----------10---------10--10---------10---------
B-10-10-10-13--------10-13----10--10---13----10---13---13-
G-------------9(/11)-------9--------------9----------9----
D---------------------------------------------------------
A---------------------------------------------------------
E---------------------------------------------------------
         G     F#            G
e-10-10----12----12----12-12-12^^^^^^-----
B-10-10--12----11----11---11--------------
G-11-11-----------------------------------
D-----------------------------------------
A-----------------------------------------
E-----------------------------------------
                     D9
e-10-12-10-12-10-12-10-12-14--10-12-10----------12---10-12-10----------12-
B--------------------------------------13-10----10------------13-10----10-
G-----------------------------------------------11---------------------11-
D--------------------------------------------12---------------------12----
A-------------------------------------------------------------------------
E-------------------------------------------------------------------------
                G
e--------------------------------------
B---------5-6-7-(/8)---(0)-------------
G-7-6-7-8--------------(7)-------------
D--------------------------------------
A--------------------------------------
E--------------------------------------

 G                          G                                D9
e--------------------------------------------------------------------------8-
B---------------------------------12-----------------------------------------
G-7-8-9-7-8-9-7-8-9-7-8-9-7-8-9-/-12----7-8-9-7-8-9-7-8-9-7-8-9-7-8-9--9-9---
D---------------------------------12-----------------------------------------
A----------------------------------------------------------------------------
E----------------------------------------------------------------------------
                                   D9
e---------------------------------------------8--
B--------------------------------------------10--
G-9-10-11-9-10-11-9-10-11-9-10-11-9-10-11--9--9--
D------------------------------------------------
A------------------------------------------------
E------------------------------------------------
                          G
e------------------------------------------------
B---------------------------------12-------------
G-7-8-9-7-8-9-7-8-9-7-8-9-7-8-9-/-12-------------
D---------------------------------12-------------
A------------------------------------------------
E------------------------------------------------
          D9
e---------------------------------------------10------10----10------------
B--------------------------------------------------12----12----12--10-----
G-9-10-11-9-10-11-9-10-11-9-10-11-9-10-11--11-----------------------------
D-------------------------------------------------------------------------
A-------------------------------------------------------------------------
E-------------------------------------------------------------------------


   G        G6  D#7   D7    C7
e--3--3--3--0---6--6--5--5--3--3-------
B--3--3--3--0---8--8--7--7--5--5-------
G--4--4--4--4---6--6--5--5--3--3-------   x 3
D--5--5--5--5---8--8--7--7--5--5-------
A--5--5--5--5---6--6--5--5--3--3-------
E--3--3--3--3--------------------------

   G         F#7       G    G7*
e--3--3--3---2--2--2---3----3--
B--3--3--3---2--2--2---3----5--
D--4--4--4---3--3--3---4----4--
G--5--5--5---2--2--2---5----3--
A--5--5--5---4--4--4---5----5--
E--3--3--3---2--2--2---3----3--

La 2da guitarra al final hace los mismos acordes que la 1era
excepto :
 En el G6 hace un G7*

 Y en el G7* la 1era guitarra hace:

 E-1/12-
 B-1/12-
 G-1/12-
 D-1/12-
 A-1/12-
 E-1/12- Y termina.


 Bueno eso es todo
 cualquier preunta
 a mi correo (que está                         __
 arriba).Visiten mi                           :||:
 espacio tengo algunas                         \/
 tablaturas mías ahí                           ||
 que no están en ninguna                       ||
 otra parte de la web.                         ||
                                              (())
   ( '' )
                                              K-po
Suggest correction
Give kudos to tab author, rate the tab!
1 2 3 4 5
comments
print report bad tab
guest
Wanna post a correction for this tab? Suggest correction