Oops, an error
Loading. Please wait.

La Primera Vez Tab

476 views 9 this week
no commentswrite comment
1 2 3 4 5
3 more votes to show rating
add to favorites
launch autoscroll
font size
0
reset
how to read this tab
guitar tuner
×
Best way to learn
"La Primera Vez"
Autoscroll
slow
fast
+/-
esc
set tempo
stop
Miren en todas la internet no hay ningun tab del intro de la
primera vez, asike aqui les va, miren no se las subi enteras
porque aqui en atame hay unas acordes que se asemejan bastante
y mi version asike para que mas trabajo, ademas que tuve que
vencer mi flojera para subir este tab, ademas estan en la misma
escala asike no se preocupen, en una de esas les subo el solo,
chauz.


Vamos al grano dijo el dermatólogo?

?Ya este es el intro en el unplugged, tienen que ponerles
algunos redobles de uñetas, unos stile?s, etc., hay ven
los que tengan el MP3 o el CD y los que no?pss,bueno.

-|-578-578---578-578-8---787-575------------|---81012---81011-81011-11
-|5---------5--------------------65------65-|-10-------10-------------
-|---------------------------------4-457----|-------------------------
-|------------------------------------------|-------------------------
-|------------------------------------------|-------------------------
-|------------------------------------------|-------------------------


-|-101110-8108--------------------------------------------------------
-|-------------10-------------10-13-12--------------------------------
-|----------------10-------10-----------------------------------------
-|-------------------12-12--------------------------------------------
-|--------------------------------------------------------------------
-|--------------------------------------------------------------------


Tambien, para que no se les haga mas dificil en la parte de:

-|-578-578---578-578-8---787-575--------------|
-|5---------5--------------------65-------65--|
-|---------------------------------4--457-----|
-|--------------------------------------------|
-|--------------------------------------------|
-|--------------------------------------------|

Pueden hacerlo solo con un slice y un redoble, me explico:

R=redoble    /=slice(no se si era asi :P, pero asi lo identificaremos)
-|-5/8-5/8---5/8-5/8-8---787-575--1R----------|
-|5---------5-----------------------------65--|
-|------------------------------------457-----|
-|--------------------------------------------|
-|--------------------------------------------|
-|--------------------------------------------|

Bueno eso seria, esta cancion la iba a subir yo (frankovzki)hace tres
dias, pero me encuentro que ya estaba xD. En todo caso igual tenia
algunas pifias.
Gracias ;)
Suggest correction
Give kudos to tab author, rate the tab!
1 2 3 4 5
comments
print report bad tab
guest
You may want to rate the tab now too:
select rating
Wanna post a correction for this tab? Suggest correction