Oops, an error
Loading. Please wait.

La Vida Que Yo He Pasao Tab

version 2
version 2

Whole song

60 views 1 this week
no commentswrite comment
1 2 3 4 5
3 more votes to show rating
add to favorites
×
Save as Personal and add changes to this tab that will be seen only by you. Learn more ›
×
You can save this tab as Personal to edit and correct it or add notes. All changes will be seen only by you. Learn more »
save as personal
new!
launch autoscroll
font size
0
reset
how to read this tab
guitar tuner
Autoscroll
slow
fast
+/-
esc
set tempo
stop
Me costó mas que la cresta..... pero esta..
Parece que ya hay una version de este punteo .. pero creo que
este es mas cómodo que el ya escrito.

Estan los intros de ambas guitarras


***************************************************
1º Guitarra - Intro ( Semicorcheas )


E||---------------------------|
B||---------------------------|
G||*--------------7-7---------|
D||*------4-4-7-7-----7-7-4-4-|
A||---5-5---------------------|
E||---------------------------|


--------------------------|
--------------------------|
--------------------------|
------4-4-----------------|
--5-5-----7-7-5-5-4-4-----|
----------------------7-7-|


--------------------------|
--------------------------|
--------------------------|
--------------7-7-6-6-7-7-|
------4-4-7-7-------------|
--5-5---------------------|

                           4x
---------------------------||
---------------------------||
--6-6-4-4-----------------*||
----------7-7-5-5-4-4-----*||
----------------------7-7--||
---------------------------||


-----------------------|
-----------------------|
--------------7--------|
------4-4-7-7----------|
--5-5------------------|
-----------------------|


--------------------------|----------------|
--------------------------|----------------|
--------------------------|--------------9-|
--------------7-7-6-6-----|------6-6-9-9---|
------6-6-9-9---------9-9-|--7-7-----------|
--7-7---------------------|----------------|

****************************************************

2º Guitarra - Intro ( esta tambien va con redobles
... y semicorcheas)

E||----------------------|
B||----------------------|
G||*--------7--11--7-----|
D||*-----7------------7--|
A||---9------------------|
E||----------------------|


----------------------|
----------------------|
----------------------|
-----7----------------|
--9-----10--9--7------|
------------------10--|


----------------------|
----------------------|
----------------------|
--------7--11--9--11--|
-----7----------------|
--9-------------------|


                       4x
-----------------------||
-----------------------||
--9--7----------------*||
--------11--9--7------*||
------------------10---||
-----------------------||


--------------------|--------------------|
--------------------|--------------------|
--------7--11-------|--------------------|
-----7--------------|-----------7--6-----|
--9-----------------|-----6--9--------9--|
--------------------|--7-----------------|


--------------|
--------------|
-----------9--|
-----6--9-----|
--7-----------|
--------------|

****************************************************

Bueno .. .despues vienen los versos

[: E / A / B7 / E / F#m / B7 /B7 / E / F#m / B7 / B7 / E :]
Suggest correction
Give kudos to tab author, rate the tab!
1 2 3 4 5
comments
print report bad tab
guest
Wanna post a correction for this tab? Suggest correction