Oops, an error
Loading. Please wait.

Lala Tab

22 views 1 this week
no commentswrite comment
1 2 3 4 5
3 more votes to show rating
add to favorites
launch autoscroll
font size
0
reset
how to read this tab
guitar tuner
Autoscroll
slow
fast
+/-
esc
set tempo
stop
Aqui otra de Los tres disco peineta 1998 muy buen tema
un poco dificil pero bueno. aca se los dejo, espero no
haberme equivocado en la transcripción culaquier correción
o duda contactar. los acodes que aparecen son los mismos
pero el ritmo es un pocquito dificil.....
espero que les guste

       C

e |----8-5--------------------------------7--5--|
b |---5----8--5-------5--5--5--------5----5--5--|
g |--5---------7--5-----------7--5--------------|
d |-5-------------------------------------------|
a |---------------------------------------------|
E |---------------------------------------------|

                                   Dm

e |----8-5------------------------------|
b |---5----8--5-------5--5--5-----------|
g |--5----------7--5-----------7-5-7----|
d |-5-----------------------------------|
a |-------------------------------------|
E |-------------------------------------|

                                            D        G

e |-----------------------------------------10-9-8-7----------------------|
b |---5-8-5---5-8-5-------5-8-5---5-8-5--------------10-9-8-8-7-6---------|
g |-7-------7-------7-7-7-------7-------7-7-----------------------7-4-----|
d |-------------------------------------------------------------------7-5-|
a |-----------------------------------------------------------------------|
E |-----------------------------------------------------------------------|

       C

e |----8-5------------------------------7-5-|
b |---5----8--5------5--5--5---------5--5-5-|
g |--5----------7--5-----------7--5---------|
d |-5---------------------------------------|
a |-----------------------------------------|
E |-----------------------------------------|

                                            F

e |----8--10-8---------------------10-10-8---------8--10-8--------8-10-8-|
b |---5--------10--8------------------------11-10--9-------9----9--------|
g |--5---------------10-9-----------------------------------10-----------|
d |-5---------------------12-11-10---------------------------------------|
a |----------------------------------------------------------------------|
E |----------------------------------------------------------------------|

    Em    D#m Dm               G             F           C

e |-7-7--7-7--6-5-------------------------------------------|
b |-8-8--8-8--7-6-------10--13--12------6--8--6------3--5---|
g |-9-9--9-9--8-7----10---------------7------------4------5-|
d |---------------12----------------9------------5----------|
a |---------------------------------------------------------|
E |---------------------------------------------------------|

       C

e |----8-5--------------------------------7--5--|
b |---5----8--5-------5--5--5--------5----5--5--|
g |--5---------7--5-----------7--5--------------|
d |-5-------------------------------------------|
a |---------------------------------------------|
E |---------------------------------------------|

                                   Dm

e |----8-5------------------------------|
b |---5----8--5-------5--5--5-----------|
g |--5----------7--5-----------7-5-7----|
d |-5-----------------------------------|
a |-------------------------------------|
E |-------------------------------------|

                                            D        G

e |-----------------------------------------10-9-8-7----------------------|
b |---5-8-5---5-8-5-------5-8-5---5-8-5--------------10-9-8-8-7-6---------|
g |-7-------7-------7-7-7-------7-------7-7-----------------------7-4-----|
d |-------------------------------------------------------------------7-5-|
a |-----------------------------------------------------------------------|
E |-----------------------------------------------------------------------|

       C

e |----8-5------------------------------7-5-|
b |---5----8--5------5--5--5---------5--5-5-|
g |--5----------7--5-----------7--5---------|
d |-5---------------------------------------|
a |-----------------------------------------|
E |-----------------------------------------|

                                            F

e |----8--10-8---------------------10-10-8---------8--10-8--------8-10-8-|
b |---5--------10--8------------------------11-10--9-------9----9--------|
g |--5---------------10-9-----------------------------------10-----------|
d |-5---------------------12-11-10---------------------------------------|
a |----------------------------------------------------------------------|
E |----------------------------------------------------------------------|

      Em  D#m  Dm               G             F           C

e |-7-7--7-7--6-5-------------------------------------------|
b |-8-8--8-8--7-6-------10--13--12------6--8--6------3--5---|
g |-9-9--9-9--8-7----10---------------7------------4------5-|
d |---------------12----------------9------------5----------|
a |---------------------------------------------------------|
E |---------------------------------------------------------|

     C                                                               Dm

e |--8--8--7-7-5-5--------------------------8--8-7-7-5-5----------------|
b |-10-10--8-8-6-6--8-8-5-5-----5---5---5--10-10-8-8-6-6-8-8-5-5--------|
g |-------------------------7-5---7---7---------------------------7-5-7-|
d |---------------------------------------------------------------------|
a |---------------------------------------------------------------------|
E |---------------------------------------------------------------------|

    Dm                                      D        G

e |-----------------------------------------10-9-8-7----------------------|
b |---5-8-5---5-8-5-------5-8-5---5-8-5--------------10-9-8-8-7-6---------|
g |-7-------7-------7-7-7-------7-------7-7-----------------------7-4-----|
d |-------------------------------------------------------------------7-5-|
a |-----------------------------------------------------------------------|
E |-----------------------------------------------------------------------|

       C

e |----8-5------------------------------7-5-|
b |---5----8--5------5--5--5---------5--5-5-|
g |--5----------7--5-----------7--5---------|
d |-5---------------------------------------|
a |-----------------------------------------|
E |-----------------------------------------|

                                            F

e |----8--10-8---------------------10-10-8---------8--10-8--------8-10-8-|
b |---5--------10--8------------------------11-10--9-------9----9--------|
g |--5---------------10-9-----------------------------------10-----------|
d |-5---------------------12-11-10---------------------------------------|
a |----------------------------------------------------------------------|
E |----------------------------------------------------------------------|

     Em   D#m Dm                G             F           C

e |-7-7--7-7--6-5-------------------------------------------|
b |-8-8--8-8--7-6-------10--13--12------6--8--6------3--5---|
g |-9-9--9-9--8-7----10---------------7------------4------5-|
d |---------------12----------------9------------5----------|
a |---------------------------------------------------------|
E |---------------------------------------------------------|

       C

e |----8-5--------------------------------7--5--|
b |---5----8--5-------5--5--5--------5----5--5--|
g |--5---------7--5-----------7--5--------------|
d |-5-------------------------------------------|
a |---------------------------------------------|
E |---------------------------------------------|

                                   Dm

e |----8-5------------------------------|
b |---5----8--5-------5--5--5-----------|
g |--5----------7--5-----------7-5-7----|
d |-5-----------------------------------|
a |-------------------------------------|
E |-------------------------------------|

                                            D        G

e |-----------------------------------------10-9-8-7----------------------|
b |---5-8-5---5-8-5-------5-8-5---5-8-5--------------10-9-8-8-7-6---------|
g |-7-------7-------7-7-7-------7-------7-7-----------------------7-4-----|
d |-------------------------------------------------------------------7-5-|
a |-----------------------------------------------------------------------|
E |-----------------------------------------------------------------------|

       C

e |----8-5------------------------------7-5-|
b |---5----8--5------5--5--5---------5--5-5-|
g |--5----------7--5-----------7--5---------|
d |-5---------------------------------------|
a |-----------------------------------------|
E |-----------------------------------------|

                                           F

e |----8--10-8---------------------10-10-8---------8--10-8--------8-10-8-|
b |---5--------10--8------------------------11-10--9-------9----9--------|
g |--5---------------10-9-----------------------------------10-----------|
d |-5---------------------12-11-10---------------------------------------|
a |----------------------------------------------------------------------|
E |----------------------------------------------------------------------|

     Em   D#m Dm                G             F           C

e |-7-7--7-7--6-5-------------------------------------------|
b |-8-8--8-8--7-6-------10--13--12------6--8--6------3--5---|
g |-9-9--9-9--8-7----10---------------7------------4------5-|
d |---------------12----------------9------------5----------|
a |---------------------------------------------------------|
E |---------------------------------------------------------|

       C

e |----8-5--------------------------------7--5--|
b |---5----8--5-------5--5--5--------5----5--5--|
g |--5---------7--5-----------7--5--------------|
d |-5-------------------------------------------|
a |---------------------------------------------|
E |---------------------------------------------|

                                   Dm

e |----8-5------------------------------|
b |---5----8--5-------5--5--5-----------|
g |--5----------7--5-----------7-5-7----|
d |-5-----------------------------------|
a |-------------------------------------|
E |-------------------------------------|

                                            D        G

e |-----------------------------------------10-9-8-7----------------------|
b |---5-8-5---5-8-5-------5-8-5---5-8-5--------------10-9-8-8-7-6---------|
g |-7-------7-------7-7-7-------7-------7-7-----------------------7-4-----|
d |-------------------------------------------------------------------7-5-|
a |-----------------------------------------------------------------------|
E |-----------------------------------------------------------------------|

       C

e |----8-5------------------------------7-5-|
b |---5----8--5------5--5--5---------5--5-5-|
g |--5----------7--5-----------7--5---------|
d |-5---------------------------------------|
a |-----------------------------------------|
E |-----------------------------------------|

                                           F

e |----8--10-8---------------------10-10-8---------8--10-8--------8-10-8-|
b |---5--------10--8------------------------11-10--9-------9----9--------|
g |--5---------------10-9-----------------------------------10-----------|
d |-5---------------------12-11-10---------------------------------------|
a |----------------------------------------------------------------------|
E |----------------------------------------------------------------------|

     Em   D#m Dm                G             F           C

e |-7-7--7-7--6-5-------------------------------------------|
b |-8-8--8-8--7-6-------10--13--12------6--8--6------3--5---|
g |-9-9--9-9--8-7----10---------------7------------4------5-|
d |---------------12----------------9------------5----------|
a |---------------------------------------------------------|
E |---------------------------------------------------------|

G - C


Grande Los Tres.........
Francisco Moreno L.
Suggest correction
Give kudos to tab author, rate the tab!
1 2 3 4 5
comments
print report bad tab
guest
You may want to rate the tab now too:
select rating
Wanna post a correction for this tab? Suggest correction