Oops, an error
Loading. Please wait.

No Me Gusta El Sol Bass Tab

42 views 1 this week
no commentswrite comment
1 2 3 4 5
3 more votes to show rating
add to favorites
launch autoscroll
font size
0
reset
guitar tuner
×
Best way to learn
"No Me Gusta El Sol"
Autoscroll
slow
fast
+/-
esc
set tempo
stop
Aiya!!!
Ésta canción la saqué a la rápida, es sólo para que les ayude
a ustedes a sacarla mejor.

A)Introducción:

G|--------------------
D|--------------------  esta introducción se hace un montón de
A|--------------------  veces.
E|--35*-535*55333-----

B) Versos:

G|--------------------
D|----7*-5*-----------  X Muchas veces
A|---------7*---23*20-
E|-5*---------33------

C) Interludio:

G|--------------------
D|-------------------- No estoy muy seguro se esta parte
A|--3**/7**/5**------- es así no más, creo que tiene otros
E|-------------------- dibujos al final.

D) Estribillo:

G|------------------------8-8--
D|---5-5----3-3----3-3---8----- completamente inseguro de ésto.
A|--5------3------3-----6--6---
E|-3--3---1--1---1--1----------

todas las notas son corcheas si fuera ésto una
partitura, y el asterisco significaría que el número
a su izquierda es una negra, por lo tanto se mantiene
más de lo normal.

Nanárië ar Tenna rato!!!
Suggest correction
Give kudos to tab author, rate the tab!
1 2 3 4 5
comments
print report bad tab
guest
You may want to rate the tab now too:
select rating
Wanna post a correction for this tab? Suggest correction