Oops, an error
Loading. Please wait.

Quien Es La Que Viene Alli Bass Tab

version 1
version 1

Whole song

Interactive

148 views 3 this week
no commentswrite comment
1 2 3 4 5
3 more votes to show rating
add to favorites
launch autoscroll
font size
0
reset
guitar tuner
Autoscroll
slow
fast
+/-
esc
set tempo
stop
Help us to improve Ultimate-Guitar.com Take our survey!
×
la cancion original esta en contrabajo , pero yo hice una tablatura para el bajo electrico

intro con punteo de guitarra
    ----------------------------------------------------------------------------------------------      
    --------------------------4---4=--------------------------------------------------------------
(P1)--2---2---2---2-3-2---2-----4=--2-------------------------------------------------------------
    ----2---2---2-------2---2---------------------------------------------------------------------

    ----------------------------------------------------------------------------------------------
(P2)-----------1=2=4---4---4=2=1=----1=2=3=4=2=1=------------1=2=4---4---4=2=1=-------------------
    -2---2---2-------4---4-------4=2=------------4=2---2---2-------4---4-------4------------------
    ---2---2-----------------------------------------2---2----------------------------------------

    ----------------------------------------------------------------------------------------------
(P3)--------1=2=4---4---4---4=2=1=--1=2=3=4=2=1=--------1=2=4--4---4---4=2=1=----1=2=3=4=2=1=-----
    --2---2-------4---4---4------4=2=-----------4=2---2------4---4---4-------4=2=------------4----
    ----2-------------------------------------------2---------------------------------------------

aqui empieza el canto , 'quien es la que viene alli'
empieza con la parte 2 con una variacion al final 

' en mi vida ...'
---------------------------------
---------------------------------
-4---4-----1=2=3=4---------------
---4---4=2-----------------------

'esa es mi nena nena ...'
parte 3

'a casar, a casar ,el señor cura...'

--------------------------------------
-----------2---2----------------------
-2---2---2---2---2-4---4-----1=2=3=4--
---2---2-------------4---4=2----------

el signo = quiere decir que las notas van pegadas. ustedes le hacen lo arreglos que quieran
pero esta el la base. UN SALUDO PA MIS AMIGOS , LA KAREN(CONNOLY), LA ALE (NEGRI) , LA CAMILI,
EL ARGEL Y EL CHIPANA . CHAUU
Suggest correction
Give kudos to tab author, rate the tab!
1 2 3 4 5
comments
print report bad tab
guest
You may want to rate the tab now too:
select rating
Wanna post a correction for this tab? Suggest correction