Oops, an error
Loading. Please wait.

Irresistible Tab

92 views 3 this week
no commentswrite comment
1 2 3 4 5
3 more votes to show rating
add to favorites
launch autoscroll
font size
0
reset
how to read this tab
guitar tuner
×
Best way to learn
"Irresistible"
Autoscroll
slow
fast
+/-
esc
set tempo
stop
La tablatura que mande anteriormente, tenia unos
cuantos errores en el requinto, y en unos acordes,
ya los he corregido, y ahora si esta bien... 
Disculpen por haberla transcrito mal... supongo que
no me fije bien...


e-0-0-0-0-0-3-0-0---0-0-0-0-0-3-0-0---0--0--0-----
B-5-5-5-5-4-4-2-2---5-5-5-5-4-4-2-2---2--3--5/6---
G-6-6-6-6-5-----2---6-6-6-6-5-----2---2--4--4/5---
D-------------------------------------------------
A-------------------------------------------------
E-------------------------------------------------

-0-0-0-0-0-4-4-2-0-2-0-----2--2-2-2-2-2-2-2-2---------
-5-5-5-4-6-2-------2---3-2-3--3-3-3-3-3-3-3-3---------
-6-6-6-5-5-2-------2-------4--4-4-4-3-3-2-2-1--1-2-3/4
------------------------------------------------------
------------------------------------------------------
------------------------------------------------------

2-2-2-2-2-2-2-2----------2-2-2-1-2-4--4-2-0-2-0-----2
3-3-3-3-3-3-3-3----------3-3-3-2-3-3--------2---3-2-3
4-4-4-3-3-2-2-1--1-2-3/4-4-4-4-3-4-4--------2-------4
-----------------------------------------------------
-----------------------------------------------------
-----------------------------------------------------

5-3-2-0--------------------------0-0
--------3-2-0--------------------0-2
--------------2-2-1-0------------1-2
----------------------4-2-0------2-2
----------------------------2-0--2-0
---------------------------------0-0

 E                              B7
Desde el cielo eh recibido la noticia de
        A          Am          E
Que un ángel se ah escapado sin querer
       C#m                 F#m
Y que anda perdido por la tierra
        B7                      E
Lo que tiene es que se viste de mujer


   F#7                             B7
Yo conozco una criatura que yo eh visto y
     A           Am          E
Que cada vez que yo la puedo ver
    C#m                          F#m
Me parece que estoy mirando a un ángel
    B7          E
El ángel de mi querer.


            B7                  E
Pero yo no soy más que un infeliz
            B7                E
Que no puedo más que decirte así
          C#m                F#m
Dios te guarde criatura irresistible
 B7              E
Dios te bendiga mujer!


e-0-0-0-0-0-3-0-0---0-0-0-0-0-3-0-0---0--0--0-----
B-5-5-5-5-4-4-2-2---5-5-5-5-4-4-2-2---2--3--5/6---
G-6-6-6-6-5-----2---6-6-6-6-5-----2---2--4--4/5---
D-------------------------------------------------
A-------------------------------------------------
E-------------------------------------------------

-0-0-0-0-0-4-4-2-0-2-0-----2--2-2-2-2-2-2-2-2---------
-5-5-5-4-6-2-------2---3-2-3--3-3-3-3-3-3-3-3---------
-6-6-6-5-5-2-------2-------4--4-4-4-3-3-2-2-1--1-2-3/4
------------------------------------------------------
------------------------------------------------------
------------------------------------------------------

2-2-2-2-2-2-2-2----------2-2-2-1-2-4--4-2-0-2-0-----2
3-3-3-3-3-3-3-3----------3-3-3-2-3-3--------2---3-2-3
4-4-4-3-3-2-2-1--1-2-3/4-4-4-4-3-4-4--------2-------4
-----------------------------------------------------
-----------------------------------------------------
-----------------------------------------------------

5-3-2-0--------------------------0-0
--------3-2-0--------------------0-2
--------------2-2-1-0------------1-2
----------------------4-2-0------2-2
----------------------------2-0--2-0
---------------------------------0-0

 E                                B7
El consuelo que me queda es que eh podido ver
    A           Am        E
De cerca a la más hermosa mujer
   C#m                         F#m
La criatura más bella que yo eh visto
  B7                     E
La figura más enchida de placer


 F#7                          B7
Es tan rara tan sencilla y tan hermosa co-
       A        Am         E
mo la más bella rosa de un vergel
       C#m                    F#m
Que me muera si al verla yo no tiemblo
 B7              E
Oh que preciosa mujer!

            B7                  E
Pero yo no soy más que un infeliz
            B7                E
Que no puedo más que decirte así
          C#m                F#m
Dios te guarde criatura irresistible
 B7              E
Dios te bendiga mujer!
          C#m                F#m
Dios te guarde criatura irresistible
 B7              E
Dios te bendiga mujer!


El ritmo es Balada Ritmica.. asi:
  \/ \/ /\    /\ \/ /\   
(abajo, abajo, arriba.... arriba, abajo, arriba)

Los acordes:

  E=MI  B7=SI7  A=LA  A=LAm  C#m=DO#m  F#m=FA#m
E  0      0      0     0       4          2
A  2      2      0     0       4          4
D  2      1      2     2       6          4
G  1      2      2     2       6          2
B  0      0      2     1       5          2
e  0      2      0     0       4          2
Suggest correction
Give kudos to tab author, rate the tab!
1 2 3 4 5
comments
print report bad tab
guest
You may want to rate the tab now too:
select rating
Wanna post a correction for this tab? Suggest correction