Oops, an error
Loading. Please wait.

Lo Dudo Tab

23 views 1 this week
no commentswrite comment
1 2 3 4 5
3 more votes to show rating
add to favorites
launch autoscroll
font size
0
reset
how to read this tab
guitar tuner
Autoscroll
slow
fast
+/-
esc
set tempo
stop
Help us to improve Ultimate-Guitar.com Take our survey!
×
lo dudo
los tres ases
__ 
  \ 
_  1|--12--15--15--14--14--12--12----------14--14--12--12------------------12--12--------------------------
_) 2|--14--17--17--15--15--14--14--15--15--15--15--14--14--15--15--14--14--14--14--15--15--14--14--12--12--
   3|------------------------------16--16------------------16--16--15--15----------16--16------------------
_  4|--------------------------------------------------------------------------------------16--16--14--14--
_) 5|------------------------------------------------------------------------------------------------------
   6|------------------------------------------------------------------------------------------------------
__/


__ 
  \ 
_  1|------------------------------
_) 2|--12--15--14--12--------------
   3|------------------14--13--12--
_  4|------------------------------
_) 5|------------------------------
   6|------------------------------
__/


__ 
  \ 
_  1|------------------------------
_) 2|--12--15--14--12--------------
   3|------------------14--13--12--
_  4|------------------------------
_) 5|------------------------------
   6|------------------------------
__/


__ 
  \ 
_  1|----------------------------------------------
_) 2|--12--15--14--12------------------------------
   3|------------------14--13--12--11--11--10--11--
_  4|----------------------------------------------
_) 5|----------------------------------------------
   6|----------------------------------------------
__/


__ 
  \ 
_  1|--------------------------------------------------
_) 2|--------------------------------------------------
   3|--11--14--12--12--11----------12------------------
_  4|----------------------14--13------14--14--13--14--
_) 5|--------------------------------------------------
   6|--------------------------------------------------
__/

__ 
  \ 
_  1|----------------------------------
_) 2|----------------------------------
   3|--12--11--------------------------
_  4|----------14--12--11--------------
_) 5|----------------------14--13--14--
   6|----------------------------------
__/
Suggest correction
Give kudos to tab author, rate the tab!
1 2 3 4 5
comments
print report bad tab
guest
You may want to rate the tab now too:
select rating
Wanna post a correction for this tab? Suggest correction