Oops, an error
Loading. Please wait.

Que Seas Feliz Tab

32 views 1 this week
no commentswrite comment
1 2 3 4 5
3 more votes to show rating
add to favorites
launch autoscroll
font size
0
reset
how to read this tab
guitar tuner
×
Best way to learn
"Que Seas Feliz"
Autoscroll
slow
fast
+/-
esc
set tempo
stop
  \                                       
   1|--0---3-2-3-2-3-2-3-4-5---3-3-2-1----0-----0--
 ) 2|--1---5-4-5-4-5-4-5-5-6--------------1-----1--
   3|--0-----------------------4-4-3-2--0----2-----
   4|----------------------------------------------
 ) 5|----------------------------------------------
   6|----------------------------------------------
__/


  \                                       
   1|---0----0--3----8--7--8--7--6--6--5--6--10----
 ) 2|---1--2---------9--8--9--8--7--7--6--7--10----
   3|-3--------------------------------------------
   4|----------------------------------------------
 ) 5|----------------------------------------------
   6|----------------------------------------------
__/


                         ESTE ES UN ACORDE
  \                                       
   1|--8---6--5-----------5-----4------5------4----
 ) 2|--10--8--6------4----56----45-----56-----45---
   3|---------------------5-----4------5------4--6-
   4|---------------------5--7--4--6---5--7---4----
 ) 5|---------------------5-----4------5------4----
   6|---------------------5-----4------5------4----
__/


                           Aquí SIGUEN OTROS ACORDES
  \                                       
   1|--5---------5----10----8-----7----5--5---3-----
 ) 2|--56-------------10----7-----7----4--5---3-----
   3|--5--------------10----8-----5----5--5---4-----
   4|--5--7-----------------7-----7----4--5---2-----
 ) 5|--5--------------------------6-----------------
   6|--5--------------------------------------------
__/


  \                                       
   1|--3----8----7-----5------3--3----7--7---5--5--
 ) 2|---5-----9----8-----6-------------------------
   3|--------------------------4--4---7--7---5--5--
   4|----------------------------------------------
 ) 5|----------------------------------------------
   6|----------------------------------------------
__/


  \                                       
   1|---3---3-----1---1------5-5---3---1-----0-----
 ) 2|----------------------------------------1-----
   3|----4----4-----2---2----5-5----4----2---0-----
   4|----------------------------------------------
 ) 5|----------------------------------------------
   6|----------------------------------------------
__/


   1|-0---3--1---0---------------------------------
 ) 2|-1---1--1---0---------------------------------
   3|-0---2--2---1---------------------------------
   4|------------2---------------------------------
                          
 
SI TIENEN DUDAS MANDENME UN MAIL
Suggest correction
Give kudos to tab author, rate the tab!
1 2 3 4 5
comments
print report bad tab
guest
You may want to rate the tab now too:
select rating
Wanna post a correction for this tab? Suggest correction