Oops, an error
Loading. Please wait.

Un Poco Mas Tab

44 views 1 this week
no commentswrite comment
1 2 3 4 5
3 more votes to show rating
add to favorites
launch autoscroll
font size
0
reset
how to read this tab
guitar tuner
Autoscroll
slow
fast
+/-
esc
set tempo
stop
Help us to improve Ultimate-Guitar.com Take our survey!
×
  \                                 ESTE ES UN ARMONICO      
   1|---------5--7---4--6--3--5-----12-------------
 ) 2|----------6------5-----4-------12-------------
   3|-----------7------6-----5------12-------------
   4|----------------------------------------------
 ) 5|---2------------------------------------------
   6|----------------------------------------------
__/


  \                                       
   1|-------8-8------7-7------5-5-------5-5--------
 ) 2|---0-0------0-0------0-0-------0-0-------0-0--
   3|----------------------------------------------
   4|----------------------------------------------
 ) 5|----------------------------------------------
   6|----------------------------------------------
__/


  \                      ESTE ES UN ARMONICO                
   1|--5-5----5-3-2-0----12------------------------
 ) 2|-------0------------12------------------------
   3|--------------------12------------------------
   4|----------------------------------------------
 ) 5|----------------------------------------------
Suggest correction
Give kudos to tab author, rate the tab!
1 2 3 4 5
comments
print report bad tab
guest
You may want to rate the tab now too:
select rating
Wanna post a correction for this tab? Suggest correction