Oops, an error
Loading. Please wait.

La Barca Tab

version 2
version 2

Whole song

101 views 1 this week
no commentswrite comment
1 2 3 4 5
3 more votes to show rating
add to favorites
launch autoscroll
font size
0
reset
how to read this tab
guitar tuner
Autoscroll
slow
fast
+/-
esc
set tempo
stop
Esta es una gran cancion de los tres caballeros
donde Chamin Correa tiene un gran conocimiento del requinto
Esta version no tiene errores
se los puedo asegurar solo es caso de que
la practiquen y ya lo veran
El + y el - estan especificados abajo.

  +  Cº  Em          Gm    A7      D             Em       F#m      Bº
  -  Gº  Dm          Fm    G7      C             Dm        Em      Cº
1|---------------7-7-9-7-5-4-5-7-9-9-0-2-4-0-2-4-0-2-4-0-2-4-7-5-4-2-4-5-7-
2|-2-5-5-5-3-2-3-7-7-6-6-7-6-7-7-6-6-2-2-2-2-2-3-3-3-3-3-3-5-5-5-5-4-4-4-4-
3|-3-6-6-6-4-3-4-----------------------------------------------------------
   Em                      Gm
   Dm                      Fm
1|-2-----2-----2-----2-3-4-5-
2|-3-3-5-3-3-5-3-3-5-3-4-5-6-
3|---4-4---4-4---4-4---------

                     D         Bº            Em      Gm      D
                     C         Cº            Dm      Fm      C
1|-----5-----5-----5-5-4-5-7-4-5-6-3-5-7-3-4-5-2-0-------------
2|-6-8-6-6-8-6-6-8-6-7-5-5-5-5-5-4-4-4-4-4-4-3-3-2-3-8-6-5-3-2-   *
3|-7-7---7-7---7-7---------------------------------4-9-7-6-4-2-

 A              Cº              Bm    E7                       A
Dicen que la distancia es el olvido, pero yo no concibo esa razon
                 Cº           Bm      E7                      A       C#7
Por que yo seguiré siendo el cautivo, de los caprichos de tu corazon
  F#m          C#7           F#m         B7                    E
Supiste esclarecer mis pensamientos, me diste la verdad que yo soñe
                             D                             C#7
Ahuyentaste de mi los sufrimientos, en la primera noche que te ame
 D                           Dm     C#7                         F#7
Hoy mi playa se viste de amargura, porque tu barca tiene que partir
Bm                           E7     A               G7        F#7
A cruzar otros caminos de locura, cuida que no naufrague tu vivir
  D                              Dm           C#m                 F#7
Cuando la luz del sol se este apagando, y te sientas cansada de vagar
  Bm                             E7                               A
Piensa que yo por ti estare esperando, hasta que tu decidas regresar

  +  Cº  Em          Gm    A7      D             Em       F#m      Bº
  -  Gº  Dm          Fm    G7      C             Dm        Em      Cº
1|---------------7-7-9-7-5-4-5-7-9-9-0-2-4-0-2-4-0-2-4-0-2-4-7-5-4-2-4-5-7-
2|-2-5-5-5-3-2-3-7-7-6-6-7-6-7-7-6-6-2-2-2-2-2-3-3-3-3-3-3-5-5-5-5-4-4-4-4-
3|-3-6-6-6-4-3-4-----------------------------------------------------------
   Em                      Gm
   Dm                      Fm
1|-2-----2-----2-----2-3-4-5-
2|-3-3-5-3-3-5-3-3-5-3-4-5-6-
3|---4-4---4-4---4-4---------

                     D         Bº            Em      Gm      D
                     C         Cº            Dm      Fm      C
1|-----5-----5-----5-5-4-5-7-4-5-6-3-5-7-3-4-5-2-0--------------5-4-
2|-6-8-6-6-8-6-6-8-6-7-5-5-5-5-5-4-4-4-4-4-4-3-3-2-3-8-6-5-3-2--2-2-
3|-7-7---7-7---7-7---------------------------------4-9-7-6-4-2--4-4-

  F#m          C#7           F#m         B7                    E
Supiste esclarecer mis pensamientos, me diste la verdad que yo soñe
                             D                             C#7
Ahuyentaste de mi los sufrimientos, en la primera noche que te ame
 D                           Dm     C#7                         F#7
Hoy mi playa se viste de amargura, porque tu barca tiene que partir
Bm                           E7     A               G7        F#7
A cruzar otros caminos de locura, cuida que no naufrague tu vivir
  D                              Dm           C#m                 F#7
Cuando la luz del sol se este apagando, y te sientas cansada de vagar
  Bm                             E7                               A
Piensa que yo por ti estare esperando, hasta que tu decidas regresar
Cº  Bm             Dm        A
   Hasta que tu decidas regresar


NOTAS PARA REQUINTO CON CAPO EN EL 2º TRASTE
RITMO: BOLERO
+=PRIMERA GUITARRA AL AIRE
-=SEGUNDA GUITARRA CON CAPO EN EL 2º TRASTE
*=REQUINTO CON CAPO EN EL 2º TRASTE

Saludos a Cuidad Mendoza Veracruz que es mi ciudad y saludos a la ESGIMA
 que es la mejor secundaria de la region
Saludos al 3º F y a FABIOLA de 3º E que la amo
Suggest correction
Give kudos to tab author, rate the tab!
1 2 3 4 5
comments
print report bad tab
guest
You may want to rate the tab now too:
select rating
Wanna post a correction for this tab? Suggest correction