Oops, an error
Loading. Please wait.

Reloj Tab

107 views 1 this week
no commentswrite comment
1 2 3 4 5
3 more votes to show rating
add to favorites
launch autoscroll
font size
0
reset
how to read this tab
guitar tuner
×
Best way to learn
"Reloj"
Autoscroll
slow
fast
+/-
esc
set tempo
stop
tic tac tic tac reloj con los tres caballeros
escuchenla esta padre o si quieren escucharla 
con los panchos 
(pocos saben que ellos tambien la tocaron).
mando tambien el requinto con los panchos
que es completamente diferente y mas rapido
al estilo del güero Gil. 


__      
  \           ,                            ,         
   1|------3-3--1-1-0--5-5-3-3-1-3-8-7-7-5--
 ) 2|------5-5--3-3-1--6-6-5-5-3-0-5-5-5-6--
   3|---0-----------------------------------
   4|-----------------7---------------------
 ) 5|---------------------------------------
   6|---------------------------------------
__/


__      
  \                      ,                 
   1|----5-10-10--8--8-7---7-6-7------------
 ) 2|----6-12-12-10-10-8---8-7-6------------
   3|---------------------------------------
   4|---------------------------------------
 ) 5|---------------------------------------
   6|---------------------------------------
__/

tic tac tic tac jejeje.....

__      
  \                                       
   1|--10----8---10---------10---8---10------
 ) 2|-----10--------10--8-----10--------10--8
   3|----------------------------------------
   4|----------------------------------------
 ) 5|----------------------------------------
   6|----------------------------------------
__/


Saludos a la gente de Reynosa 
si tu eres Chamin Correa o alguno de los 
cuates Puente (GILBERTO O RAUL).  
no duden en mandarme un e-mail.
Gerardo Lee Calera Reynosa tamps. 
( re5to@
Suggest correction
Give kudos to tab author, rate the tab!
1 2 3 4 5
comments
print report bad tab
guest
You may want to rate the tab now too:
select rating
Wanna post a correction for this tab? Suggest correction