Oops, an error
Loading. Please wait.

El Pastor Tab

53 views 1 this week
no commentswrite comment
1 2 3 4 5
3 more votes to show rating
add to favorites
launch autoscroll
font size
0
reset
how to read this tab
guitar tuner
×
Best way to learn
"El Pastor"
Autoscroll
slow
fast
+/-
esc
set tempo
stop
Tono: Lam

Introducción
E||-12-----12--10-----10--8-----8--7---------|
B||---13-13--13--12-12--12-10-10-10-9-9------|
G||------------------------------------9-----|
D||------------------------------------------|
A||------------------------------------------|
E||------------------------------------------|

E||-12-13-12-----12--10-12-10-----10--8-10-8-----8--7-8-7------------|
B||---------15-13--13--------13-12--12------12-10-10-----10-9--------|
G||----------------------------------------------------------9-------|
D||------------------------------------------------------------------|
A||------------------------------------------------------------------|
E||------------------------------------------------------------------|

E||-12-12-13-12----------------------17------------------------------|
B||------------15-13-12--------13--13--17----------------------------|
G||--------------------14-13-14--14------17-14-----------------------|
D||------------------------------------------------------------------|
A||------------------------------------------------------------------|
E||------------------------------------------------------------------|

Bueno este es mi primer tab y espero que les guste
Suggest correction
Give kudos to tab author, rate the tab!
1 2 3 4 5
comments
print report bad tab
guest
You may want to rate the tab now too:
select rating
Wanna post a correction for this tab? Suggest correction