Oops, an error
Loading. Please wait.

Embrujo Tab

35 views 1 this week
no commentswrite comment
1 2 3 4 5
3 more votes to show rating
add to favorites
launch autoscroll
font size
0
reset
how to read this tab
guitar tuner
Autoscroll
slow
fast
+/-
esc
set tempo
stop
Help us to improve Ultimate-Guitar.com Take our survey!
×
EMBRUJO 
LLEVA CAPO EN SEGUNDO TRASTE EN EL REQUINTO 


  \                                       
   1|-----5--7---5-5---4-3--7--8---7-7--5-4-5------
 ) 2|----------------------------------------------
   3|-----5--7---5-5---4-3--7--8---7-7--5-4-5------
   4|----------------------------------------------
 ) 5|----------------------------------------------
   6|----------------------------------------------
__/


  \                                       
   1|------5--7--5-5-----3-2--3--5--0--------------
 ) 2|----------------------------------------------
   3|------5---7---5-5---4-3--4--5--1--------------
   4|----------------------------------------------
 ) 5|----------------------------------------------
   6|----------------------------------------------
__/


  \                                       
   1|--------0------0-----4-----7------------------
 ) 2|-----------4--------3----5--------------------
   3|---------------------4-----7------------------
   4|----------------------------------------------
 ) 5|----------------------------------------------
   6|----------------------------------------------
__/


  \                                       
   1|--------0------0----5----7--------------------
 ) 2|-----------4--------5----8--------------------
   3|--------------------5----9--------------------
   4|----------------------------------------------
 ) 5|----------------------------------------------
   6|----------------------------------------------
Suggest correction
Give kudos to tab author, rate the tab!
1 2 3 4 5
comments
print report bad tab
guest
You may want to rate the tab now too:
select rating
Wanna post a correction for this tab? Suggest correction