Oops, an error
Loading. Please wait.

Usted Chords

version 1
version 1

Whole song

97 views 3 this week
no commentswrite comment
1 2 3 4 5
3 more votes to show rating
add to favorites
launch autoscroll
font size
0
reset
transpose
0
reset
simplify chords
display chords
guitar tuner
×
Best way to learn
"Usted"
Autoscroll
slow
fast
+/-
esc
set tempo
stop
Estilo Bolero

Armonizado en Do mayor (C)

G7               Cmaj7
Usted es la culpable
de todas mis angustias
                Dm7    G
y todos mis quebrantos
                Dm7
usted llenò mi vida
                G
de dulces inquietudes
               Cmaj7
y amargos desencantos

Su amor es como un grito
que llevo aqui en mi sangre
                  Dm7   G
y aqui en mi corazòn
                  Dm7
Y soy aunque no quiera
                G
esclavo de tus ojos
              Cmaj7  Dm7  G
juguete de tu amor
                   Cmaj7
No juegue con mis penas
ni con mi sientimiento
                 Dm7   G
es lo ùnico que tengo
                Dm7
usted es mi esparanza
               G
mi ùltima esperanza
                 A7
comprende de una vez
               Dm7
Usted me desespera
Fm             Em7      A7
me mata, me enloquece
                 Dm7
y hasta la vida diera
               G
por vencer el miedo
             Cmaj7
de besarla a usted


AQUI LES DEJO LOS ACORDES PORQUE ESTAN MEDIOS FUMADOS XD

OJO^****

los 3 k hay aki en el acorde es cejilla = en los demas!!!!
para los que no entiendan k fregados puse

tipo el acorde  G7 nos dice
en la 6º cuerda debe ir pisada el 3º traste
en la 5º cuerda debe ir pisada el 5º traste
y asi sucesivamente!!!


G7
------------3---6º cuerda
--------5-------5º cuerda
------------3---4º cuerda
----------4-----3º cuerda
------6---------2º cuerda
------------3---1º cuerda

Cmaj 7

------------3---6º cuerda
------------3---5º cuerda
-------5--------4º cuerda
----------4-----3º cuerda
-------5--------2º cuerda
------------3---1º cuerda

Dm7
----------------6º cuerda
----------------5º cuerda
----------------4º cuerda
-----------2----3º cuerda
-------------1--2º cuerda
-------------1--1º cuerda

G
-------------3--6º cuerda
--------5-------5º cuerda
--------5-------4º cuerda
-----------4----3º cuerda
-------------3--2º cuerda
-------------3--1º cuerda

A7
----------------6º cuerda
----------------5º cuerda
-----------2----4º cuerda
----------------3º cuerda
-----------2----2º cuerda
----------------1º cuerda


Fm
--------------1-6º cuerda
----------3-----5º cuerda
----------3-----4º cuerda
--------------1-3º cuerda
--------------1-2º cuerda
--------------1-1º cuerda

Em7
----------------6º cuerda
----------2-----5º cuerda
----------2-----4º cuerda
----------------3º cuerda
--------3-------2º cuerda
----------------1º cuerda


Disfrutenla raza!!!

Puro Linares!!!

Arturo Lopez Ramirez

EL "canales" 4 ever.." el exito no lo perdona"
..oye bb XD

miss U bb
Suggest correction
Give kudos to tab author, rate the tab!
1 2 3 4 5
comments
print report bad tab
guest
You may want to rate the tab now too:
select rating
Wanna post a correction for this tab? Suggest correction