Oops, an error
Loading. Please wait.

Usted Tab

55 views 1 this week
no commentswrite comment
1 2 3 4 5
3 more votes to show rating
add to favorites
launch autoscroll
font size
0
reset
how to read this tab
guitar tuner
×
Best way to learn
"Usted"
Autoscroll
slow
fast
+/-
esc
set tempo
stop
1--9----------------9--9--7------------7----7-9-7-5-
2--9-9---------9----9--9--7-7--------7-7----7-9-7-5-
3--9---9----9-------9--9--7---7----7---7----7-9-7-5-
4--9-----9----------9--9--7-----7------7----7-9-7-5-
5---------------------------------------------------
6---------------------------------------------------


1--------------5---5----------------------------------
2--5--------5--5---5--6--6--------6--7--7-------7---8-
3----5----5----5---5--6----6----6----7----7---7-----8-
4------5-------5---5--6------6-------7------7-------8-
5-----------------------------------------------------
6-----------------------------------------------------

dudas after19_@
feliz 14 de febrero.
Suggest correction
Give kudos to tab author, rate the tab!
1 2 3 4 5
comments
print report bad tab
guest
You may want to rate the tab now too:
select rating
Wanna post a correction for this tab? Suggest correction