Oops, an error
Loading. Please wait.

Al Final De La Calle Tab

75 views 3 this week
no commentswrite comment
1 2 3 4 5
3 more votes to show rating
add to favorites
launch autoscroll
font size
0
reset
how to read this tab
guitar tuner
Autoscroll
slow
fast
+/-
esc
set tempo
stop
A|---------------3h5-5-5h5-3----------------------6h8-6-6h8-6---------
E|---------------5---3-3---5-5-3h5----------------8---8-8---8--8-6h8--
C|---------------------------7-4------------------------------10-8----
G|---0-3-2--0-------------------------0-3-2--0------------------------
D|-2-2-2-3--2-2---------------------2-2-2-3--2-2----------------------
A|-3----------3---------------------3----------3----------------------

A|---------------3h5-3--3h5-3---------------------8h10-10--8h10-10-10-10-
E|---------------5---5--5---5-5-3h5--------------10----10-10----10-10-10-
C|---0-3-2--0-----------------7-4----------------------------------------
G|-2-2-2-3--2-2-----------------------0-3-2--0---------------------------
D|-3----------3---------------------2-2-2-3--2-2-------------------------
A|----------------------------------3----------3-------------------------

A|-14-10----------------------10-12-8------------------
E|------13-10------------10-13-------11-8---------8-11-
C|-----------11--------11----------------9-------9-----
G|-------------12-10-12-------------------10-8-10------

A|-8-14-10---------14-10--------
E|--------13-10---------13-10---
C|-------------11------------11-
G|------------------------------

A|-12-8-------12-8----------------------
E|-----11-8-------11-8------------------ de aki se empieza
C|---------9-----------9---------------- luego luego con
G|---------------------------0-3-2------ el acorde
D|-------------------------2-2-2-3--0-2- para que se oiga
A|-------------------------3--------2-3- correcta


G        E7       Am      D7
   Al final de la calle
                 G   Em
   donde te conoci
                    Am    D7
   en silencio me muero
                  G  F7 E7
   esperando por ti--i--i

                    Am    D7
   Una noche estrellada
                   G    Cm
   me dijiste que si
                  G                A7       D7       G
   una tarde enlutada sin hacerte nada te fuiste de mi

                    D#
   Estoy solo tan triste
                    Bb   A7
   desde que te perdi
                      D     Bm
   porque cuando te fuiste
                     Em     A7
   en la nada me hundiste
                     D
   entre sombras me vi

         E7       Am   D7
   Al final de la calle
                 G    Cm
   donde te conoci
                       G                      A7        D7        G
   aunque ya no he de verte estare hasta la muerte esperando por ti


buenO esta es una canciOn maravillosa de lOs tres reyes..
se la dedikO a una niña mui especial...
bueno pues para cualquier tablatura e intercambio de ellas..
MI correo..
luagar_1991@

cuidense
UN SALUDO ASTA CD MENDOZA VERACRUZ AKI RESIDO
Suggest correction
Give kudos to tab author, rate the tab!
1 2 3 4 5
comments
print report bad tab
guest
Wanna post a correction for this tab? Suggest correction