Oops, an error
Loading. Please wait.

Alas Quebradas Tab

166 views 3 this week
no commentswrite comment
1 2 3 4 5
3 more votes to show rating
add to favorites
launch autoscroll
font size
0
reset
how to read this tab
guitar tuner
Autoscroll
slow
fast
+/-
esc
set tempo
stop
Help us to improve Ultimate-Guitar.com Take our survey!
×
Con esta cancion me despido del atame espero que mis trascripciones 
despierten el arte en mas de tres. De todo lo demas mi mail SirRobertt@ 
Recuerden al trio Café*Café de Panamá.

Recomiendo poner el capotrasto en el terser trate.

En los parentecis colocca los dedos en esta posicion y sura los dedos hacia ariba dos veces

Cada ves que veas en mi tablatura un punto  [.] , significa que del sonido que proporciona
la cuerda o punteo aterior tu solo muedes la cuerda si pulsarla  Ejemplo:

     Del sonido de tres      solo muerdes en cinco

1)----3--                     5.-3
2)--------


Y cuando encuentres ...> Significa que se sura la cuerda asta el trate indicado


1)---3--5.-3---------5...>7--5-0------------------------------
2)-----------5-3---3------------3---(3)---3-3-3--5.-5--3-----
3)---------------5---------------4---(4)------------------4--
4)-----------------------------------------------------------
5)-----------------------------------------------------------
6)-----------------------------------------------------------

1)---3--5.-3---------5...>7--5-0------------------------------
2)-----------5-3---3------------3---(3)---3-3-3--5.-5--3-----
3)---------------5---------------4---(4)------------------4--
4)-----------------------------------------------------------
5)-----------------------------------------------------------
6)-----------------------------------------------------------


En esta parte solo se tiene que tener es un poco de imaginacion, la vase son los parentesis
  (jalar una ves hacia arriba.)

1)-------------0-0------------------------0-0-----------------------0-0--------
2)---(3)---5.----------5---------(3)----5.--------5--------(3)---5.----------5-
3)-----(4)-------------------------(4)-----------------------(4)---------------
4)------------------6--------------------------6--------------------------6----
5)-----------------------------------------------------------------------------
6)-----------------------------------------------------------------------------


1)--0-0-0-0-0-0-2-4--5-5--4-5------
2)---------------------------5--3--
3)--------------------------------5
4)---------------------------------
5)---------------------------------
6)---------------------------------

Cancion   Alas Quebradas
LAm

                                                 
LA7                REm                              
NO voveras a mi yo lo preciento             
                                            
SOL M              DO               MI      
todo tiene su fin pasando el tiempo         
                                            
FA                      MI      
Tu podras reir de mi tormento

                                   LAm 1)--0---0-------
y no seras feliz auque te encuentres otro amor   2)----3---3--1-1
                                     3)--------------

LA7                REm                                            
Yo seguire luchando con mi pena

SOL M                            DO      MI
hasta arrancar de mi alma esta cadena

FA                             MI
Esa pasion que arrasta y me atormenta 

            LAm           MI          LAm
A LA Prision oscura de mis noches de dolor      1)--0---0-------
                                    2)----3---3--1-1
                                    3)--------------


SOL M                            DO      MI      Bajo
Tu puedes ir sin mi por todas partes            4)------------------ 
                                    5)---3--2--0--------
                      LAm   LA7
Gaviota de aristocratico plumaje 

REm             LAm
Yo podre mirar en la distancia azul 

MI                    LAm
Tus alas ya quebradas sobre el mar    1)--0---0-------
                              2)----3---3--1-1
                              3)--------------


Esta parte se repite dos veces


1)---3--5.-3---------5...>7--5-0------------------------------
2)-----------5-3---3------------3---(3)---3-3-3--5.-5--3-----
3)---------------5---------------4---(4)------------------4--
4)-----------------------------------------------------------
5)-----------------------------------------------------------
6)-----------------------------------------------------------


lo MISMO QUE LA DE ARRIBA SOLO VARIA EL SIGUIENTE TAPS

1)-------------0-0------------------------0-0----------
2)---(3)---5.----------5---------(3)----5.--------5----
3)-----(4)-------------------------(4)-----------------
4)------------------6--------------------------6-------
5)-----------------------------------------------------
6)-----------------------------------------------------


1)---------------------------------------------------------0-0--------------0--5--
2)---(3)---5.----5----------(3)-5.--------5------(3)---5.---------5--3---3--------
3)----(4)-------(4)----------(4)---------(4)------(4)------------------5----------
4)-------------------------------------------------------------6------------------
5)--------------------------------------------------------------------------------
6)--------------------------------------------------------------------------------


     /Aqui un repiqueo  
1)---0-0-0-0-0-0-0------12--0-0-0-0--7--0-0-0-0--4--0-0-0-0--3----
2)----------------------------------------------------------------


1)---0-0-0-0-0-0-0------12--0-0-0-0--7--0-0-0-0--4--0-0-0-0--3----
2)----------------------------------------------------------------


1)---0-0-0-0-0-0-0------12--0-0-0-0--7--0-0-0-0--4--0-0-0-0--3-----
2)-----------------------------------------------------------------


1)---0-0-0-0-0-0-0------12--0-0-0-0--7--0-0-0-0--5--
2)--------------------------------------------------


1)------------------------5-5-5-5---12--12--12--10-10-10---8-8-8-7-
2)----------2-2-2--5-5-5-------------------------------------------
3)--2--2--2--------------------------------------------------------


1)----------------2-2-2---7---12--12--12--10-10-10---8-8-8-7---
2)----------4-4-4----------------------------------------------
3)----4-4-4----------------------------------------------------


1)-0-0-0-2-3-4---0-0-0-2-3-4---0-0-0-3-4-5---0-0-0-3-4-5---0-0-0-5-6-7---0-0-0-5-6-7-
2)-----------------------------------------------------------------------------------
3)-----------------------------------------------------------------------------------


1)--8-8-8--7-7-7--5-5-5----
2)-------------------------
3)-------------------------


LA7                REm      
No voveras a mi con la mentira 

SOL M              DO               MI  
por la que yo senti perder la vida 

FA                      MI      
hay tormentas negras en el alma,

            LAm           MI          LAm
Donde muere el amor cuado le falta la verdad. 


1)-----5--------------
2)-----5--------------
3)-----5--------------


Con esta cancion me despido del atame espero que mis trascripciones 

despierten el arte en mas de tres. De todo lo demas mi mail SirRobertt@ 

Recuerden al trio Café*Café de Panamá.

Cualquier sugerencia mi mail SirRobertt@
Suggest correction
Give kudos to tab author, rate the tab!
1 2 3 4 5
comments
print report bad tab
guest
You may want to rate the tab now too:
select rating
Wanna post a correction for this tab? Suggest correction