Oops, an error
Loading. Please wait.

Alma Llanera Tab

139 views 1 this week
no commentswrite comment
1 2 3 4 5
3 more votes to show rating
add to favorites
launch autoscroll
font size
0
reset
how to read this tab
guitar tuner
×
Best way to learn
"Alma Llanera"
Autoscroll
slow
fast
+/-
esc
set tempo
stop
para empezar este rekinto esta en E (mi mayor)
se toca en rekinto con KPO a 2º traste ok

1er rekinto lo dividi en 3 partes

1ª parte se repite 2 veces

6:-----------------
5:-----------------
4:-----------------
3:-2-------------2-
2:--0-1-3-------1--
1:-------0-1-0-0--0

2ªparte

6:-------------------------------------------------------
5:-------------------------------------------------------
4:---------------------------------------------------3-2-
3:-5------------------------------------------2-0-2-0----
2:-5------------------------3-1-0-0-0-0--0-1-0-----------
1:-5-8-7-5-4-7-5-4-5-0-0-1-0-----------------------------

6:----------------------3-3-1-0-----------------
5:--------3-2-0--2-3-2-0-0----------------------
4:-2-3-2-0--------------------------------------
3:-----------------------------2-------------2--
2:------------------------------0-1-3-------1---
1:-----------------------------------0-1-0-0--0-

3ªparte el cascabel se repite 2 veces y tambien se toca
despues de algunos parrafos pongan atencon donde va

6:-----------------------------
5:-0-4-------------------------
4:----2-0-4--------------------
3:---------2-------------------
2:----------0-------0--------0-
1:-----------0-3-2h0-0-3-2h0---

Un par de ventajas de los tres reyes si
han puesto atencion es ke son 2 rekintos RAUL Y GILBERTO
esta dificil sacar segundas a los rekintos cuando es uno solo
y otra gilberto puente siempre usa figuras basicas para sus rekintos
y muchos tonos al aire por eso tiene velocidad ok
asi ke a practicar mucho

2º rekinto no es muy dificil lo dividi en 5 partes

1ªparte 2 veces

6:------------
5:------------
4:-6-4--9--7--
3:-4-2--9--7--
2:-5-3--9--7--
1:-4-2--12-10-

2ª parte la escala esta parte se toca asi con el pulgar das la
progresion y con el indice contrapunteas la segunda cuerda

6:-0-4-2-5-4--------------------------
5:-----------2-0-4-2-5-4--------------
4:-----------------------2-0-4-2-6-4--
3:------------------------------------
2:--0-0-0-0-0-0-0-0-0-0-0-0-0-0-0-0-0-
1:------------------------------------

6:-------------------------------------------------------------------
5:-------------------------------------------------------------------
4:---------------------------------------14--------------------------
3:-2-1-4-2-6-4-7-6-9-7-11-9-13-11-14-13--13-13-13-13-13-13-13-13-13--
2:--0-0-0-0-0-0-0-0-0-0--0-0--0--0--0--0-0---------------------------
1:---------------------------------------0----0--0--0--0--0--0--0--0-

3ªparte el arpa este toke se da muy suave hacia arriba alternado
los dedos indice y medio

6:----------------------------------------------------------------
5:----------------------------------------------------------------
4:----2-2--------------2-2--------------2-2-------2-2-------2-2---
3:---1-1--------------1-1--------------1-1-------1-1-------1-1----
2:--0-0--------------0-0--------------0-0-------0-0-------0-0-----
1:-2-2---0-0--0-0-0-2-2---0-0--0-0-0-2-2---0-0-2-2---0-0-2-2---0-0

4ªparte arpa punteada

                (esta parte entre parentesis se da con remates)
6:----------------------------------------
5:-7-7-7-7-7-7-7-7-7-7-7-7-(7-7-7-7-7-7-7-7)
4:-6-6-6-6-7-7-7-7-6-6-6-6-(7-7-7-7-7-7-7-7)
3:-7-7-7-7-6-6-6-6-7-7-7-7-(6-6-6-6-6-6-6-6)
2:-5-5-5-5-5-5-5-5-5-5-5-5-(5-5-5-5-5-5-5-5)
1:--0-0-0-0-0-0-0-0-0-0-0-------------------

6:-------------------------
5:-7-7-7-7-7-7-7-7-7-7-7-7-  Depues de esto se hace una pausa de
4:-6-6-6-6-7-7-7-7-6-6-6-6-   3seg y se pasa a la 5ªparte el cascabel
3:-7-7-7-7-6-6-6-6-7-7-7-7-
2:-5-5-5-5-5-5-5-5-5-5-5-5-
1:--0-0-0-0-0-0-0-0-0-0-0--

5ª parte se repite el cascabel 2 veces

6:-----------------------------
5:-0-4-------------------------
4:----2-0-4--------------------
3:---------2-------------------
2:----------0-------0--------0-
1:-----------0-3-2h0-0-3-2h0---

bueno eso es todo si hay algun error aganmelo saber y el ritmo ke
yeva la guitarra de acompañamiento es algo parecido al del pistolero
de antonio banderas ok y si kieren la version ke cantan
con luis villa me la piden ok echenle ganas nos leemos pronto bye
atte EManuel (rekintista) del dueto carmesi de cd valles SLP
Suggest correction
Give kudos to tab author, rate the tab!
1 2 3 4 5
comments
print report bad tab
guest
You may want to rate the tab now too:
select rating
Wanna post a correction for this tab? Suggest correction