Oops, an error
Loading. Please wait.

Amor Perfecto Tab

65 views 1 this week
no commentswrite comment
1 2 3 4 5
3 more votes to show rating
add to favorites
launch autoscroll
font size
0
reset
how to read this tab
guitar tuner
×
Best way to learn
"Amor Perfecto"
Autoscroll
slow
fast
+/-
esc
set tempo
stop
Otra mas de los tres reyes 
una sencillita del ultimo album 

a---------------------------------------
E--------------------------------------
C-----------------------3-3--------------
G---3-3--2-2-----------------2-2---------
D-------------5-5--4-4-----------5-5-4-4--
A---------------------------------------


a----------------------4-4-3-3-1-1-0-0--
E---4-4-3-3-1-1-0-0---------------------
C--------------------------------------
G---------------------------------------
D---------------------------------------
A---------------------------------------


a---------------------2-2-1-1-----------
E--2-2--1-1--------------------4-4-3-3--
C------------3-3-2-2-------------------
G--------------------------------------
D---------------------------------------
A---------------------------------------


a--7-7-6-6------------------------------
E-----------9-9-8-8---5-5-4-4-------------
C------------------------------6-6-5-5-----
G---------------------------------------
D---------------------------------------
A------------------------------------


a---5-5-4-4-----------10-10-9-9--------
E-----------7-7-6-6--------------12-12-11-11--
C--------------------------------------
G---------------------------------------
D---------------------------------------
A---------------------------------------


a----3-3-2-2------------8-8-7-7-----------
E-------------5-5-4-4------------10-10-9-9
C-------------------------------
G--------------------------------------
D---------------------------------------
A---------------------------------------


a--13-13-12-12-10-10-9-9-8-8-7-7-6-6-5-5---
E---------------------------------------
C---------------------------------------
G---------------------------------------
D---------------------------------------
A----------------------------------------

Alguna duda o sugerencia 
Con GERARDO CALERA 
Re5to@
Suggest correction
Give kudos to tab author, rate the tab!
1 2 3 4 5
comments
print report bad tab
guest
You may want to rate the tab now too:
select rating
Wanna post a correction for this tab? Suggest correction