Oops, an error
Loading. Please wait.

Ansiedad Tab

37 views 1 this week
no commentswrite comment
1 2 3 4 5
3 more votes to show rating
add to favorites
launch autoscroll
font size
0
reset
how to read this tab
guitar tuner
×
Best way to learn
"Ansiedad"
Autoscroll
slow
fast
+/-
esc
set tempo
stop
Afinación :Requinto al aire A D G C E A 

|--0-0---0-1-|2h4p2-2-2-3-3h4-4-3-4-4-|5-5-4h7-0-0---|0-1-2h3p2-2-2-3h4-3-|
|--2-2-4-2-2-|3-----2-3-4-4h5-5-4-5-5-|--------2-2-4-|2-2-3-----2-3-4h5-4-|
|------5-----|------------------------|6-6-5h6-----5-|--------------------|
|------------|------------------------|--------------|--------------------|
|------------|------------------------|--------------|--------------------|
|------------|------------------------|--------------|--------------------|

|4-4-5-5-4-7-|3-3-3-3-3-3-------3-------3---|----3-------3-------3-------2-------2-------|
|5-5---------|------------5---5---5---5---5-|--5---5---5---5---5---5---5---3---3---3---3-|
|----6-6-5-6-|--------------6-------6-------|6-------6-------6-------6-------4-------4---|
|------------|------------------------------|--------------------------------------------|
|------------|------------------------------|--------------------------------------------|
|------------|------------------------------|--------------------------------------------|

|2-------2-0-2-3-4-2h4p2-0-|--0---------------------------|------0---5-|
|--3---3-------------------|3---3-0---0-----0---0-----0---|--2-----2---|
|----4---------------------|--------2---2-1---2---2-1---2-|----2-------|
|--------------------------|------------------------------|2-----------|
|--------------------------|------------------------------|------------|
|--------------------------|------------------------------|------------|
                                                                       
Suggest correction
Give kudos to tab author, rate the tab!
1 2 3 4 5
comments
print report bad tab
guest
You may want to rate the tab now too:
select rating
Wanna post a correction for this tab? Suggest correction