Oops, an error
Loading. Please wait.

Buscando Una Estrella Tab

48 views 1 this week
no commentswrite comment
1 2 3 4 5
2 more votes to show rating
add to favorites
launch autoscroll
font size
0
reset
how to read this tab
guitar tuner
Autoscroll
slow
fast
+/-
esc
set tempo
stop
Help us to improve Ultimate-Guitar.com Take our survey!
×
Mis requintos siempre son la base del original los demas 
depende de la imaginacion del que lo ejecuta.

1------------------------------
2------------------------------
3------------------------------
4------7--9-----------------7--
5---9-------9--9--7----7--9---9
6-------------------10---------


1---------7---------------5----
2---7--10---7-7--------7-------
3----------------9-7-9---------
4------------------------------
5------------------------------
6------------------------------


1---5-7-5-7-5-7-5----------------------------------
2-----------------9-9-9-9-9---7-7-7-7-7-9----------
3--------------------------------------------------
4--------------------------------------------------
5--------------------------------------------6-----
6--------------------------------------------------

Esta cancion es para todo aquel coleccionista de la musica de los tres reyes 
espero que les guste.
Suggest correction
Give kudos to tab author, rate the tab!
1 2 3 4 5
comments
print report bad tab
guest
You may want to rate the tab now too:
select rating
Wanna post a correction for this tab? Suggest correction