Oops, an error
Loading. Please wait.

Cuando Ya No Me Quieras Tab

46 views 1 this week
no commentswrite comment
1 2 3 4 5
3 more votes to show rating
add to favorites
launch autoscroll
font size
0
reset
how to read this tab
guitar tuner
Autoscroll
slow
fast
+/-
esc
set tempo
stop
Help us to improve Ultimate-Guitar.com Take our survey!
×
Esta transcripcción es para requinto.
alguna duda mandamela a mi mail


1----------------------------------------------2---
2--------------3------3--------5-------5-----------
3--------------------------------------------2---2-
4---3-4-3-4---5--4---4---4---5---5---5---5-0-------
5-----------2-----2--------4-------4---------------
6--------------------------------------------------

1-------2-------3-------3-------6-------6----------
2--------------------------------------------------
3-----2---2---4---4---4---4---6---6---6---6---9---7
4---0-------2-------2-------4-------4-------7---5--
5--------------------------------------------------
6--------------------------------------------------


1----------------------------------------------2---
2--------------3------3--------5-------5-----------
3--------------------------------------------2---2-
4---3-4-3-4---5--4---4---4---5---5---5---5-0-------
5-----------2-----2--------4-------4---------------
6--------------------------------------------------

1-------2-------3-------3-------6-------6----------
2--------------------------------------------------
3-----2---2---4---4---4---4---6---6---6---6---9---7
4---0-------2-------2-------4-------4-------7---5--
5--------------------------------------------------
6--------------------------------------------------

1---7-------6-------3-------2---------------3------
2----------------------------------5---------------
3-----7---6---6---4---4---2---2---------------5----
4-------4-------2-------0---------5---5---4--------
5-------------------------------4-------2----------
6--------------------------------------------------

1--------------------------------------------------
2-------3-------3-------3-----3--------------------
3--------------------------------------------------
4-----4---4---4---4---4---4---4--------------------
5---2-------2-------2---------1--------------------
6--------------------------------------------------
Suggest correction
Give kudos to tab author, rate the tab!
1 2 3 4 5
comments
print report bad tab
guest
You may want to rate the tab now too:
select rating
Wanna post a correction for this tab? Suggest correction