Oops, an error
Loading. Please wait.

El Almanaque Tab

77 views 1 this week
no commentswrite comment
1 2 3 4 5
2 more votes to show rating
add to favorites
launch autoscroll
font size
0
reset
how to read this tab
guitar tuner
×
Best way to learn
"El Almanaque"
Autoscroll
slow
fast
+/-
esc
set tempo
stop
Hola este es el acompañamiento se toca con un requinto
o guitarra con capo en quinto traste:

1 --------7-8-7-7--7---------------3---2--0--1--0--0-0-0-2-3--0-0-1/0-
2 --0---0--------10-10-7-----0---0---4----------------4--------4------
3 ----3-----------------8------3--------------------------------------
4 -----------------------9--------------------------------------------
5 --------------------------------------------------------------------
6 --------------------------------------------------------------------

1 ---0-1/0-0-12-13-12-12--12-----------0---0--8-8-7--5-7-5--5-7-8-8-8-
2 --4-----4-------------15--15-12--------4-----9-----------9----------
3 -------------------------------13-----------------------------------
4 ---------------------------------14---------------------------------
5 --------------------------------------------------------------------
6 --------------------------------------------------------------------

1 --8-8-8-8---8-7--7-5----------------0--10-8-7-8-10-10---10-12-10-10-
2 ---------5-----5----5-5-8-7-5-7-8-8--0------------------------------
3 ----------5-----5----5----------------------------------------------
4 --------------------------------------------------------------------
5 --------------------------------------------------------------------
6 --------------------------------------------------------------------

1 --8-8-----------------------------------------------------5--5-5----
2 ------12-12-10-10-8-8-7-7--------------------------------8------7-8-
3 --------------------------9-9-7-7-----------------------------------
4 ----------------------------------10-9------------------------------
5 -----------------------------------------5-7-5/7/5-5-7-5------------
6 --------------------------------------------------------------------

1 --------------------2--2-2------------------------------------------
2 -------------------5------4-5-----------0-1--1-1--0-----------------
3 -------------------------------------------------2------------------
4 --------------------------------------------------------------------
5 --2-3-2/3/2-2-3-2---------------------------------------------------
6 --------------------------------------------------------------------

Espero que les sirva de algo cualquier duda escríbanme a mi correo
rebeck_86erik@
Suggest correction
Give kudos to tab author, rate the tab!
1 2 3 4 5
comments
print report bad tab
guest
You may want to rate the tab now too:
select rating
Wanna post a correction for this tab? Suggest correction