Oops, an error
Loading. Please wait.

El Camino De La Vida Tab

173 views 1 this week
no commentswrite comment
1 2 3 4 5
3 more votes to show rating
add to favorites
launch autoscroll
font size
0
reset
how to read this tab
guitar tuner
×
Best way to learn
"El Camino De La Vida"
Autoscroll
slow
fast
+/-
esc
set tempo
stop
Aquí les envío esta canción muy bella que se la dedico a DIOS y a mis 
padres Geovanny y Mariana por enseñarme este arte.
Espero que les guste y disfrútenla.

Se toca en requinto.

A--2--3--0--2----3--0--2--3--0--2--3--0--2--3--0--2----3--0--2----4--5
E---------------------------------------------------------------------
C---------------------------------------------------------------------
G---------------------------------------------------------------------
D---------------------------------------------------------------------
A---------------------------------------------------------------------

A--2--4----5--2--4--5--2--4--5--2--4--5--2--4----5--2--4----7--7--7---
E---------------------------------------------------------------------
C---------------------------------------------------------------------
G---------------------------------------------------------------------
D---------------------------------------------------------------------
A---------------------------------------------------------------------

A--7P4--------------------4--7----9--9--9--9P5-----------------5--7H9-
E------6--6P4--2--4--4H6-----------------------7-----------7----------
C------------------------------------------------6-----6--------------
G---------------------------------------------------7-----------------
D---------------------------------------------------------------------
A---------------------------------------------------------------------

A--10--10--10--10P7-----------------7--10----12--12--12--12P9---------
E-------------------9-----------9-----------------------------10--10P7
C----------------------9--7--9----------------------------------------
G---------------------------------------------------------------------
D---------------------------------------------------------------------
A---------------------------------------------------------------------

A---------------9--12P9--7--10P7--6--9P6--3--5P3--2--3P2----1P0-------
E-----7--10----10--10----8---8----7--7----5--5----3--3-----------4--5-
C--9------------------------------------------------------------------
G---------------------------------------------------------------------
D---------------------------------------------------------------------
A---------------------------------------------------------------------

A---------------------------------------------------------------------
E--6--7--8--9--10--11--12--13--14--13--12--11--10--9--8--7--6--5--4--3
C---------------------------------------------------------------------
G---------------------------------------------------------------------
D---------------------------------------------------------------------
A---------------------------------------------------------------------

A------------
E-2----2--2--
C------------
G------------


De prisa como el viento van pasando,

A---------------------------
E---2--------2-----2--3--3--
C---4--3--4-----4-----------
G---------------------------

Los días y las noches de la infancia,

A--0-----------------                A-----------------5--
E-----0--------------                E-----------5--------
C--------1-----------                C-----6--------6-----
G-----------2--1--0--                G--------7-----------
                                     D--7-----------------

Un ángel nos protege con cuidados,
Mientras sus manos tejen las distancias,

A--9--------8--------7--
E-----6--------6--------
C--------6--------6-----
G-----------------------

Después llegan los años juveniles,

A---------------------------
E---2--------2-----2--3--3--
C---4--3--4-----4-----------
G---------------------------

Los juegos los amigos el colegio,

A--0-----------------                A-----------------5--
E-----0--------------                E-----------5--------
C--------1-----------                C-----6--------6-----
G-----------2--1--0--                G--------7-----------
                                     D--7-----------------

El alma ya define sus perfiles,
Y empieza el corazón,

C----5---
G----4---
D----6---
A----5---


De pronto a cultivar un sueño,

C----4---
G----3---
D----5---
A----4---

Y brotan como manantial, Las mieles del primer amor,
El alma ya quiere volar,
Y vuela tras una ilusión,
Aprendemos que el dolor y la alegría,

A----------2-----7--
E-----3-------3-----
C--------4----------
G--4----------------

Son la esencia permanente de la vida,

A-----------------5--
E-----------5--------
C-----6--------6-----
G--------7-----------
D--7-----------------

Y luego cuando somos dos,
En busca de un mismo ideal,
Formamos un nido de amor,
Refugio que se llama hogar,
Empezamos otra etapa del camino,
Un hombre una mujer,

C----5---
G----4---
D----6---
A----5---

Unidos en la fe por el destino

C----4---
G----3---
D----5---
A----4---


Segundo estribillo.


A--2--3--0--2----3--0--2--3--0--2--3--0--2--3--0--2----3--0--2----4--5
E---------------------------------------------------------------------
C---------------------------------------------------------------------
G---------------------------------------------------------------------
D---------------------------------------------------------------------
A---------------------------------------------------------------------

A--2--4----5--2--4--5--2--4--5--2--4--5--2--4----5--2--4-----4P1-----1
E-----------------------------------------------------------------2---
C---------------------------------------------------------------------
G---------------------------------------------------------------------
D---------------------------------------------------------------------
A---------------------------------------------------------------------


A----------------------1---4P1-----1----------------------2-----------
E--2--0--2P0-----0--2-----------2-----2--0--2P0-----0--2--------------
C-------------1----------------------------------1--------------------
G---------------------------------------------------------------------
D---------------------------------------------------------------------
A---------------------------------------------------------------------


A--5P2-----2----------------------2---5P2-----2----------------------4
E-------5-----5--2--5P2-----2--5-----------5-----5--2--5P2-----2--5---
C------------------------4----------------------------------4---------
G---------------------------------------------------------------------
D---------------------------------------------------------------------
A---------------------------------------------------------------------

A--7P4-----4----------------------4---7P4-----4----------------------5
E-------5-----5--3--5P3-----3--5-----------5-----5--3--5P3-----3--5---
C------------------------4----------------------------------4---------
G---------------------------------------------------------------------
D---------------------------------------------------------------------
A---------------------------------------------------------------------

A--9P5-----5----------------------5---9P5-----5----------------------6
E-------7-----7--5--7P5-----5--7-----------7-----7--5--7P5-----5--7---
C------------------------6----------------------------------6---------
G---------------------------------------------------------------------
D---------------------------------------------------------------------
A---------------------------------------------------------------------

A--9P6-----6----------------------6---9P6-----6----------------------7
E-------7-----7--5--7P5-----5--7-----------7-----7--5--7P5-----5--7---
C------------------------6----------------------------------6---------
G---------------------------------------------------------------------
D---------------------------------------------------------------------
A---------------------------------------------------------------------


A--10P7------7-------------------------7---10P7------7----------------
E--------10-----10--7--10P7-----7--10------------10-----10--7--10P7---
C----------------------------9---------------------------------------9
G---------------------------------------------------------------------
D---------------------------------------------------------------------
A---------------------------------------------------------------------

A---------8----11P8-----8----------------------8---11P8-----8---------
E--7--10-------------9-----9--7--9P7-----7--9------------9-----9--7---
C-------------------------------------8-------------------------------
G---------------------------------------------------------------------
D---------------------------------------------------------------------
A---------------------------------------------------------------------

A----------------9----13P9------9--------------------------9----12H13-
E--9P7-----7--9-------------12-----12--9--12P9------9--12-------------
C-------8---------------------------------------11--------------------
G---------------------------------------------------------------------
D---------------------------------------------------------------------
A---------------------------------------------------------------------

A--12--11--10--9--8--7--6--5--4--3--2--1--2--3--4--5--6--7--8--9---10-
E--------------------------------------2--3--4--5--6--7--8--9--10--11-
C---------------------------------------------------------------------
G---------------------------------------------------------------------
D---------------------------------------------------------------------
A---------------------------------------------------------------------

A--11--12--13----13--13--
E--12--13--14----14--14--
C------------------------
G------------------------


Los frutos de la unión que Dios bendijo,

C-----------------------------------------
G--------------------4--4--2--2--0--------
D--5--4--2--------------------------4--2--
A-----------5--4--2-----------------------

Alegran el hogar con su presencia,

C-------------------------------------
G--------0--2--4--4H6--4--4--2--0-----
D--2--4----------------------------4--
A-------------------------------------

A quien se quiere más sino a los hijos,

C-----------0--0-----------------
G-----------------4--4-----0--0--
D--4--2--1--------------2--------
A--------------------------------
Son la prolongación de la existencia,

C-----------2--2-----1--1-----------
G--0--------------------------3--3--
D-----4--4--------3-----------------
A--------------------------4--------

Después tantas penas y desvelos,

A---------------------------
E---2--------2-----2--3--3--
C---4--3--4-----4-----------
G---------------------------

Para que no les falte nunca nada,

A--0-----------------                A-----------------5--
E-----0--------------                E-----------5--------
C--------1-----------                C-----6--------6-----
G-----------2--1--0--                G--------7-----------
                                     D--7-----------------

Para que cuando crezcan lleguen lejos,
Y puedan alcanzar esa felicidad tan anhelada,
Y luego cuando ellos se van,
Algunos sin decir adiós,
El frío de la soledad,
Golpea nuestro corazón,
Es por eso amor mío que te pido
Por una y otra vez,

A----5---
E----4---
C----5---
G----4---

Si llego a la vejez,

A----4---  
E----3---
C----4---
G----3---

A-----------5H9--9--7----7---------7--10H14--14--13---13----------13--
E--------7--------------10--9--10---------------------15--14--15------
C-----7---------------------------------------------------------------
G--9------------------------------------------------------------------
D---------------------------------------------------------------------
A---------------------------------------------------------------------
A--16--21--
E----------
C----------
G----------
D----------
A----------

Que estés conmigo.


Cualquier duda o petición de alguna canción escríbanme a willicar696@
Suggest correction
Give kudos to tab author, rate the tab!
1 2 3 4 5
comments
print report bad tab
guest
You may want to rate the tab now too:
select rating
Wanna post a correction for this tab? Suggest correction