Oops, an error
Loading. Please wait.

Jacarandosa Tab

version 1
version 1

Whole song

154 views 1 this week
no commentswrite comment
1 2 3 4 5
3 more votes to show rating
add to favorites
launch autoscroll
font size
0
reset
how to read this tab
guitar tuner
×
Best way to learn
"Jacarandosa"
Autoscroll
slow
fast
+/-
esc
set tempo
stop
Ritmo: Guaracha
Afinación :Requinto con capo en el Segundo Traste B E A D F# B

Introducción
|0---2-4-5-5-5---5-5-|5---5-5-5-5-5-4-5-6-7-|7---7-7-7-7-7-7-7-5-7-|
|--------2-2-2---2-2-|2---2-2-2-2-2-1-2-3-4-|4---4-4-4-4-4-4-4-2-4-|
|--------------------|----------------------|----------------------|
|--------------------|----------------------|----------------------|
|--------------------|----------------------|----------------------|
|--------------------|----------------------|----------------------|


|5-4-4-4-4-4-4-4-|4-4-0-2-4-5-5-2-5/|0-2-4-----5---|--5-----5-----5-0-0-2p|
|2-5-5-5-5-5-5-5-|5-5-------2-2-3-2/|------1-2---1-|2---1-2---1-2---------|
|----------------|------------------|--------------|----------------------|
|----------------|------------------|--------------|----------------------|
|----------------|------------------|--------------|----------------------|
|----------------|------------------|--------------|----------------------|

|0-----7-----7-----7-|----7-------------0---|--0-----0-----0-0-2-4-|
|--4-5---4-5---4-5---|4-5---0-0-2p0---------|----------------------|
|--------------------|--------------0-1---0-|1---0-1---0-1---------|
|--------------------|----------------------|----------------------|
|--------------------|----------------------|----------------------|
|--------------------|----------------------|----------------------|

|--5-4-2-0-----------|2---|||||||||||||
|----------3-2-0-----|2---|||||||||||||
|----------------1-2-|2---|||||||||||||
|--------------------|2---|||||||||||||
|--------------------|----|||||||||||||
|--------------------|----|||||||||||||

Nota: es te requinto la unica dificultad  que tiene es hacer bien los tiempos
     escucharla con la canción original...

Dudas y comentarios, enviame un correo lo contestare con gusto.
o si quieres oir esta cancion en midi con tabs. visita mi web
Suggest correction
Give kudos to tab author, rate the tab!
1 2 3 4 5
comments
print report bad tab
guest
You may want to rate the tab now too:
select rating
Wanna post a correction for this tab? Suggest correction